999
"DXF R12 Output" (www.mydxf.blogspot.com)
 0 
SECTION
 2 
HEADER
 9 
$ACADVER
 1 
AC1009
 9 
$EXTMIN
 10 
 0 
 20 
 0 
 9 
$EXTMAX
 10 
 8.5 
 20 
 11 
 0 
ENDSEC
 0 
SECTION
 2 
ENTITIES
0
LINE
8
图层 1
10
155.000000
20
80.000000
11
154.907826
21
76.280965
0
LINE
8
图层 1
10
154.907826
20
76.280965
11
154.633000
21
72.587171
0
LINE
8
图层 1
10
154.633000
20
72.587171
11
154.178069
21
68.924767
0
LINE
8
图层 1
10
154.178069
20
68.924767
11
153.545580
21
65.299900
0
LINE
8
图层 1
10
153.545580
20
65.299900
11
152.738079
21
61.718716
0
LINE
8
图层 1
10
152.738079
20
61.718716
11
151.758112
21
58.187364
0
LINE
8
图层 1
10
151.758112
20
58.187364
11
150.608225
21
54.711990
0
LINE
8
图层 1
10
150.608225
20
54.711990
11
149.290965
21
51.298743
0
LINE
8
图层 1
10
149.290965
20
51.298743
11
147.808878
21
47.953769
0
LINE
8
图层 1
10
147.808878
20
47.953769
11
146.164511
21
44.683216
0
LINE
8
图层 1
10
146.164511
20
44.683216
11
144.360409
21
41.493231
0
LINE
8
图层 1
10
144.360409
20
41.493231
11
142.399119
21
38.389962
0
LINE
8
图层 1
10
142.399119
20
38.389962
11
140.283188
21
35.379556
0
LINE
8
图层 1
10
140.283188
20
35.379556
11
138.015162
21
32.468161
0
LINE
8
图层 1
10
138.015162
20
32.468161
11
135.597586
21
29.661924
0
LINE
8
图层 1
10
135.597586
20
29.661924
11
133.033009
21
26.966991
0
LINE
8
图层 1
10
133.033009
20
26.966991
11
130.338076
21
24.402414
0
LINE
8
图层 1
10
130.338076
20
24.402414
11
127.531839
21
21.984838
0
LINE
8
图层 1
10
127.531839
20
21.984838
11
124.620444
21
19.716812
0
LINE
8
图层 1
10
124.620444
20
19.716812
11
121.610038
21
17.600881
0
LINE
8
图层 1
10
121.610038
20
17.600881
11
118.506769
21
15.639591
0
LINE
8
图层 1
10
118.506769
20
15.639591
11
115.316784
21
13.835489
0
LINE
8
图层 1
10
115.316784
20
13.835489
11
112.046231
21
12.191122
0
LINE
8
图层 1
10
112.046231
20
12.191122
11
108.701257
21
10.709035
0
LINE
8
图层 1
10
108.701257
20
10.709035
11
105.288010
21
9.391775
0
LINE
8
图层 1
10
105.288010
20
9.391775
11
101.812636
21
8.241888
0
LINE
8
图层 1
10
101.812636
20
8.241888
11
98.281284
21
7.261921
0
LINE
8
图层 1
10
98.281284
20
7.261921
11
94.700100
21
6.454420
0
LINE
8
图层 1
10
94.700100
20
6.454420
11
91.075233
21
5.821931
0
LINE
8
图层 1
10
91.075233
20
5.821931
11
87.412829
21
5.367000
0
LINE
8
图层 1
10
87.412829
20
5.367000
11
83.719035
21
5.092174
0
LINE
8
图层 1
10
83.719035
20
5.092174
11
80.000000
21
5.000000
0
LINE
8
图层 1
10
80.000000
20
5.000000
11
76.280965
21
5.092174
0
LINE
8
图层 1
10
76.280965
20
5.092174
11
72.587171
21
5.367000
0
LINE
8
图层 1
10
72.587171
20
5.367000
11
68.924767
21
5.821931
0
LINE
8
图层 1
10
68.924767
20
5.821931
11
65.299900
21
6.454420
0
LINE
8
图层 1
10
65.299900
20
6.454420
11
61.718716
21
7.261921
0
LINE
8
图层 1
10
61.718716
20
7.261921
11
58.187364
21
8.241888
0
LINE
8
图层 1
10
58.187364
20
8.241888
11
54.711990
21
9.391775
0
LINE
8
图层 1
10
54.711990
20
9.391775
11
51.298743
21
10.709035
0
LINE
8
图层 1
10
51.298743
20
10.709035
11
47.953769
21
12.191122
0
LINE
8
图层 1
10
47.953769
20
12.191122
11
44.683216
21
13.835489
0
LINE
8
图层 1
10
44.683216
20
13.835489
11
41.493231
21
15.639591
0
LINE
8
图层 1
10
41.493231
20
15.639591
11
38.389962
21
17.600881
0
LINE
8
图层 1
10
38.389962
20
17.600881
11
35.379556
21
19.716812
0
LINE
8
图层 1
10
35.379556
20
19.716812
11
32.468161
21
21.984838
0
LINE
8
图层 1
10
32.468161
20
21.984838
11
29.661924
21
24.402414
0
LINE
8
图层 1
10
29.661924
20
24.402414
11
26.966991
21
26.966991
0
LINE
8
图层 1
10
26.966991
20
26.966991
11
24.402414
21
29.661924
0
LINE
8
图层 1
10
24.402414
20
29.661924
11
21.984838
21
32.468161
0
LINE
8
图层 1
10
21.984838
20
32.468161
11
19.716812
21
35.379556
0
LINE
8
图层 1
10
19.716812
20
35.379556
11
17.600881
21
38.389962
0
LINE
8
图层 1
10
17.600881
20
38.389962
11
15.639591
21
41.493231
0
LINE
8
图层 1
10
15.639591
20
41.493231
11
13.835489
21
44.683216
0
LINE
8
图层 1
10
13.835489
20
44.683216
11
12.191122
21
47.953769
0
LINE
8
图层 1
10
12.191122
20
47.953769
11
10.709035
21
51.298743
0
LINE
8
图层 1
10
10.709035
20
51.298743
11
9.391775
21
54.711990
0
LINE
8
图层 1
10
9.391775
20
54.711990
11
8.241888
21
58.187364
0
LINE
8
图层 1
10
8.241888
20
58.187364
11
7.261921
21
61.718716
0
LINE
8
图层 1
10
7.261921
20
61.718716
11
6.454420
21
65.299900
0
LINE
8
图层 1
10
6.454420
20
65.299900
11
5.821931
21
68.924767
0
LINE
8
图层 1
10
5.821931
20
68.924767
11
5.367000
21
72.587171
0
LINE
8
图层 1
10
5.367000
20
72.587171
11
5.092174
21
76.280965
0
LINE
8
图层 1
10
5.092174
20
76.280965
11
5.000000
21
80.000000
0
LINE
8
图层 1
10
5.000000
20
80.000000
11
5.092174
21
83.719035
0
LINE
8
图层 1
10
5.092174
20
83.719035
11
5.367000
21
87.412829
0
LINE
8
图层 1
10
5.367000
20
87.412829
11
5.821931
21
91.075233
0
LINE
8
图层 1
10
5.821931
20
91.075233
11
6.454420
21
94.700100
0
LINE
8
图层 1
10
6.454420
20
94.700100
11
7.261921
21
98.281284
0
LINE
8
图层 1
10
7.261921
20
98.281284
11
8.241888
21
101.812636
0
LINE
8
图层 1
10
8.241888
20
101.812636
11
9.391775
21
105.288010
0
LINE
8
图层 1
10
9.391775
20
105.288010
11
10.709035
21
108.701257
0
LINE
8
图层 1
10
10.709035
20
108.701257
11
12.191122
21
112.046231
0
LINE
8
图层 1
10
12.191122
20
112.046231
11
13.835489
21
115.316784
0
LINE
8
图层 1
10
13.835489
20
115.316784
11
15.639591
21
118.506769
0
LINE
8
图层 1
10
15.639591
20
118.506769
11
17.600881
21
121.610038
0
LINE
8
图层 1
10
17.600881
20
121.610038
11
19.716812
21
124.620444
0
LINE
8
图层 1
10
19.716812
20
124.620444
11
21.984838
21
127.531839
0
LINE
8
图层 1
10
21.984838
20
127.531839
11
24.402414
21
130.338076
0
LINE
8
图层 1
10
24.402414
20
130.338076
11
26.966991
21
133.033009
0
LINE
8
图层 1
10
26.966991
20
133.033009
11
29.661924
21
135.597586
0
LINE
8
图层 1
10
29.661924
20
135.597586
11
32.468161
21
138.015162
0
LINE
8
图层 1
10
32.468161
20
138.015162
11
35.379556
21
140.283188
0
LINE
8
图层 1
10
35.379556
20
140.283188
11
38.389962
21
142.399119
0
LINE
8
图层 1
10
38.389962
20
142.399119
11
41.493231
21
144.360409
0
LINE
8
图层 1
10
41.493231
20
144.360409
11
44.683216
21
146.164511
0
LINE
8
图层 1
10
44.683216
20
146.164511
11
47.953769
21
147.808878
0
LINE
8
图层 1
10
47.953769
20
147.808878
11
51.298743
21
149.290965
0
LINE
8
图层 1
10
51.298743
20
149.290965
11
54.711990
21
150.608225
0
LINE
8
图层 1
10
54.711990
20
150.608225
11
58.187364
21
151.758112
0
LINE
8
图层 1
10
58.187364
20
151.758112
11
61.718716
21
152.738079
0
LINE
8
图层 1
10
61.718716
20
152.738079
11
65.299900
21
153.545580
0
LINE
8
图层 1
10
65.299900
20
153.545580
11
68.924767
21
154.178069
0
LINE
8
图层 1
10
68.924767
20
154.178069
11
72.587171
21
154.633000
0
LINE
8
图层 1
10
72.587171
20
154.633000
11
76.280965
21
154.907826
0
LINE
8
图层 1
10
76.280965
20
154.907826
11
80.000000
21
155.000000
0
LINE
8
图层 1
10
80.000000
20
155.000000
11
83.719035
21
154.907826
0
LINE
8
图层 1
10
83.719035
20
154.907826
11
87.412829
21
154.633000
0
LINE
8
图层 1
10
87.412829
20
154.633000
11
91.075233
21
154.178069
0
LINE
8
图层 1
10
91.075233
20
154.178069
11
94.700100
21
153.545580
0
LINE
8
图层 1
10
94.700100
20
153.545580
11
98.281284
21
152.738079
0
LINE
8
图层 1
10
98.281284
20
152.738079
11
101.812636
21
151.758112
0
LINE
8
图层 1
10
101.812636
20
151.758112
11
105.288010
21
150.608225
0
LINE
8
图层 1
10
105.288010
20
150.608225
11
108.701257
21
149.290965
0
LINE
8
图层 1
10
108.701257
20
149.290965
11
112.046231
21
147.808878
0
LINE
8
图层 1
10
112.046231
20
147.808878
11
115.316784
21
146.164511
0
LINE
8
图层 1
10
115.316784
20
146.164511
11
118.506769
21
144.360409
0
LINE
8
图层 1
10
118.506769
20
144.360409
11
121.610038
21
142.399119
0
LINE
8
图层 1
10
121.610038
20
142.399119
11
124.620444
21
140.283188
0
LINE
8
图层 1
10
124.620444
20
140.283188
11
127.531839
21
138.015162
0
LINE
8
图层 1
10
127.531839
20
138.015162
11
130.338076
21
135.597586
0
LINE
8
图层 1
10
130.338076
20
135.597586
11
133.033009
21
133.033009
0
LINE
8
图层 1
10
133.033009
20
133.033009
11
135.597586
21
130.338076
0
LINE
8
图层 1
10
135.597586
20
130.338076
11
138.015162
21
127.531839
0
LINE
8
图层 1
10
138.015162
20
127.531839
11
140.283188
21
124.620444
0
LINE
8
图层 1
10
140.283188
20
124.620444
11
142.399119
21
121.610038
0
LINE
8
图层 1
10
142.399119
20
121.610038
11
144.360409
21
118.506769
0
LINE
8
图层 1
10
144.360409
20
118.506769
11
146.164511
21
115.316784
0
LINE
8
图层 1
10
146.164511
20
115.316784
11
147.808878
21
112.046231
0
LINE
8
图层 1
10
147.808878
20
112.046231
11
149.290965
21
108.701257
0
LINE
8
图层 1
10
149.290965
20
108.701257
11
150.608225
21
105.288010
0
LINE
8
图层 1
10
150.608225
20
105.288010
11
151.758112
21
101.812636
0
LINE
8
图层 1
10
151.758112
20
101.812636
11
152.738079
21
98.281284
0
LINE
8
图层 1
10
152.738079
20
98.281284
11
153.545580
21
94.700100
0
LINE
8
图层 1
10
153.545580
20
94.700100
11
154.178069
21
91.075233
0
LINE
8
图层 1
10
154.178069
20
91.075233
11
154.633000
21
87.412829
0
LINE
8
图层 1
10
154.633000
20
87.412829
11
154.907826
21
83.719035
0
LINE
8
图层 1
10
154.907826
20
83.719035
11
155.000000
21
80.000000
0
LINE
8
图层 1
10
155.000000
20
80.000000
11
155.000000
21
80.000000
0
LINE
8
图层 1
10
87.600000
20
80.000000
11
87.478207
21
79.387707
0
LINE
8
图层 1
10
87.478207
20
79.387707
11
87.131371
21
78.868629
0
LINE
8
图层 1
10
87.131371
20
78.868629
11
86.612293
21
78.521793
0
LINE
8
图层 1
10
86.612293
20
78.521793
11
86.000000
21
78.400000
0
LINE
8
图层 1
10
86.000000
20
78.400000
11
85.387707
21
78.521793
0
LINE
8
图层 1
10
85.387707
20
78.521793
11
84.868629
21
78.868629
0
LINE
8
图层 1
10
84.868629
20
78.868629
11
84.521793
21
79.387707
0
LINE
8
图层 1
10
84.521793
20
79.387707
11
84.400000
21
80.000000
0
LINE
8
图层 1
10
84.400000
20
80.000000
11
84.521793
21
80.612293
0
LINE
8
图层 1
10
84.521793
20
80.612293
11
84.868629
21
81.131371
0
LINE
8
图层 1
10
84.868629
20
81.131371
11
85.387707
21
81.478207
0
LINE
8
图层 1
10
85.387707
20
81.478207
11
86.000000
21
81.600000
0
LINE
8
图层 1
10
86.000000
20
81.600000
11
86.612293
21
81.478207
0
LINE
8
图层 1
10
86.612293
20
81.478207
11
87.131371
21
81.131371
0
LINE
8
图层 1
10
87.131371
20
81.131371
11
87.478207
21
80.612293
0
LINE
8
图层 1
10
87.478207
20
80.612293
11
87.600000
21
80.000000
0
LINE
8
图层 1
10
87.600000
20
80.000000
11
87.600000
21
80.000000
0
LINE
8
图层 1
10
75.600000
20
80.000000
11
75.478207
21
79.387707
0
LINE
8
图层 1
10
75.478207
20
79.387707
11
75.131371
21
78.868629
0
LINE
8
图层 1
10
75.131371
20
78.868629
11
74.612293
21
78.521793
0
LINE
8
图层 1
10
74.612293
20
78.521793
11
74.000000
21
78.400000
0
LINE
8
图层 1
10
74.000000
20
78.400000
11
73.387707
21
78.521793
0
LINE
8
图层 1
10
73.387707
20
78.521793
11
72.868629
21
78.868629
0
LINE
8
图层 1
10
72.868629
20
78.868629
11
72.521793
21
79.387707
0
LINE
8
图层 1
10
72.521793
20
79.387707
11
72.400000
21
80.000000
0
LINE
8
图层 1
10
72.400000
20
80.000000
11
72.521793
21
80.612293
0
LINE
8
图层 1
10
72.521793
20
80.612293
11
72.868629
21
81.131371
0
LINE
8
图层 1
10
72.868629
20
81.131371
11
73.387707
21
81.478207
0
LINE
8
图层 1
10
73.387707
20
81.478207
11
74.000000
21
81.600000
0
LINE
8
图层 1
10
74.000000
20
81.600000
11
74.612293
21
81.478207
0
LINE
8
图层 1
10
74.612293
20
81.478207
11
75.131371
21
81.131371
0
LINE
8
图层 1
10
75.131371
20
81.131371
11
75.478207
21
80.612293
0
LINE
8
图层 1
10
75.478207
20
80.612293
11
75.600000
21
80.000000
0
LINE
8
图层 1
10
75.600000
20
80.000000
11
75.600000
21
80.000000
0
LINE
8
图层 1
10
81.600000
20
74.000000
11
81.478207
21
73.387707
0
LINE
8
图层 1
10
81.478207
20
73.387707
11
81.131371
21
72.868629
0
LINE
8
图层 1
10
81.131371
20
72.868629
11
80.612293
21
72.521793
0
LINE
8
图层 1
10
80.612293
20
72.521793
11
80.000000
21
72.400000
0
LINE
8
图层 1
10
80.000000
20
72.400000
11
79.387707
21
72.521793
0
LINE
8
图层 1
10
79.387707
20
72.521793
11
78.868629
21
72.868629
0
LINE
8
图层 1
10
78.868629
20
72.868629
11
78.521793
21
73.387707
0
LINE
8
图层 1
10
78.521793
20
73.387707
11
78.400000
21
74.000000
0
LINE
8
图层 1
10
78.400000
20
74.000000
11
78.521793
21
74.612293
0
LINE
8
图层 1
10
78.521793
20
74.612293
11
78.868629
21
75.131371
0
LINE
8
图层 1
10
78.868629
20
75.131371
11
79.387707
21
75.478207
0
LINE
8
图层 1
10
79.387707
20
75.478207
11
80.000000
21
75.600000
0
LINE
8
图层 1
10
80.000000
20
75.600000
11
80.612293
21
75.478207
0
LINE
8
图层 1
10
80.612293
20
75.478207
11
81.131371
21
75.131371
0
LINE
8
图层 1
10
81.131371
20
75.131371
11
81.478207
21
74.612293
0
LINE
8
图层 1
10
81.478207
20
74.612293
11
81.600000
21
74.000000
0
LINE
8
图层 1
10
81.600000
20
74.000000
11
81.600000
21
74.000000
0
LINE
8
图层 1
10
81.600000
20
86.000000
11
81.478207
21
85.387707
0
LINE
8
图层 1
10
81.478207
20
85.387707
11
81.131371
21
84.868629
0
LINE
8
图层 1
10
81.131371
20
84.868629
11
80.612293
21
84.521793
0
LINE
8
图层 1
10
80.612293
20
84.521793
11
80.000000
21
84.400000
0
LINE
8
图层 1
10
80.000000
20
84.400000
11
79.387707
21
84.521793
0
LINE
8
图层 1
10
79.387707
20
84.521793
11
78.868629
21
84.868629
0
LINE
8
图层 1
10
78.868629
20
84.868629
11
78.521793
21
85.387707
0
LINE
8
图层 1
10
78.521793
20
85.387707
11
78.400000
21
86.000000
0
LINE
8
图层 1
10
78.400000
20
86.000000
11
78.521793
21
86.612293
0
LINE
8
图层 1
10
78.521793
20
86.612293
11
78.868629
21
87.131371
0
LINE
8
图层 1
10
78.868629
20
87.131371
11
79.387707
21
87.478207
0
LINE
8
图层 1
10
79.387707
20
87.478207
11
80.000000
21
87.600000
0
LINE
8
图层 1
10
80.000000
20
87.600000
11
80.612293
21
87.478207
0
LINE
8
图层 1
10
80.612293
20
87.478207
11
81.131371
21
87.131371
0
LINE
8
图层 1
10
81.131371
20
87.131371
11
81.478207
21
86.612293
0
LINE
8
图层 1
10
81.478207
20
86.612293
11
81.600000
21
86.000000
0
LINE
8
图层 1
10
81.600000
20
86.000000
11
81.600000
21
86.000000
 0 
ENDSEC
 0 
EOF