999
"DXF R12 Output" (www.mydxf.blogspot.com)
 0 
SECTION
 2 
HEADER
 9 
$ACADVER
 1 
AC1009
 9 
$EXTMIN
 10 
 0 
 20 
 0 
 9 
$EXTMAX
 10 
 8.5 
 20 
 11 
 0 
ENDSEC
 0 
SECTION
 2 
ENTITIES
0
LINE
8
图层 1
10
180.000000
20
90.000000
11
179.889391
21
85.537158
0
LINE
8
图层 1
10
179.889391
20
85.537158
11
179.559600
21
81.104606
0
LINE
8
图层 1
10
179.559600
20
81.104606
11
179.013683
21
76.709721
0
LINE
8
图层 1
10
179.013683
20
76.709721
11
178.254696
21
72.359880
0
LINE
8
图层 1
10
178.254696
20
72.359880
11
177.285695
21
68.062459
0
LINE
8
图层 1
10
177.285695
20
68.062459
11
176.109734
21
63.824836
0
LINE
8
图层 1
10
176.109734
20
63.824836
11
174.729870
21
59.654388
0
LINE
8
图层 1
10
174.729870
20
59.654388
11
173.149158
21
55.558491
0
LINE
8
图层 1
10
173.149158
20
55.558491
11
171.370654
21
51.544522
0
LINE
8
图层 1
10
171.370654
20
51.544522
11
169.397413
21
47.619859
0
LINE
8
图层 1
10
169.397413
20
47.619859
11
167.232491
21
43.791877
0
LINE
8
图层 1
10
167.232491
20
43.791877
11
164.878943
21
40.067954
0
LINE
8
图层 1
10
164.878943
20
40.067954
11
162.339826
21
36.455467
0
LINE
8
图层 1
10
162.339826
20
36.455467
11
159.618194
21
32.961793
0
LINE
8
图层 1
10
159.618194
20
32.961793
11
156.717104
21
29.594308
0
LINE
8
图层 1
10
156.717104
20
29.594308
11
153.639610
21
26.360390
0
LINE
8
图层 1
10
153.639610
20
26.360390
11
150.405692
21
23.282896
0
LINE
8
图层 1
10
150.405692
20
23.282896
11
147.038207
21
20.381806
0
LINE
8
图层 1
10
147.038207
20
20.381806
11
143.544533
21
17.660174
0
LINE
8
图层 1
10
143.544533
20
17.660174
11
139.932046
21
15.121057
0
LINE
8
图层 1
10
139.932046
20
15.121057
11
136.208123
21
12.767509
0
LINE
8
图层 1
10
136.208123
20
12.767509
11
132.380141
21
10.602587
0
LINE
8
图层 1
10
132.380141
20
10.602587
11
128.455478
21
8.629346
0
LINE
8
图层 1
10
128.455478
20
8.629346
11
124.441509
21
6.850842
0
LINE
8
图层 1
10
124.441509
20
6.850842
11
120.345612
21
5.270130
0
LINE
8
图层 1
10
120.345612
20
5.270130
11
116.175164
21
3.890266
0
LINE
8
图层 1
10
116.175164
20
3.890266
11
111.937541
21
2.714305
0
LINE
8
图层 1
10
111.937541
20
2.714305
11
107.640120
21
1.745304
0
LINE
8
图层 1
10
107.640120
20
1.745304
11
103.290279
21
0.986317
0
LINE
8
图层 1
10
103.290279
20
0.986317
11
98.895394
21
0.440400
0
LINE
8
图层 1
10
98.895394
20
0.440400
11
94.462842
21
0.110609
0
LINE
8
图层 1
10
94.462842
20
0.110609
11
90.000000
21
0.000000
0
LINE
8
图层 1
10
90.000000
20
0.000000
11
85.537158
21
0.110609
0
LINE
8
图层 1
10
85.537158
20
0.110609
11
81.104606
21
0.440400
0
LINE
8
图层 1
10
81.104606
20
0.440400
11
76.709721
21
0.986317
0
LINE
8
图层 1
10
76.709721
20
0.986317
11
72.359880
21
1.745304
0
LINE
8
图层 1
10
72.359880
20
1.745304
11
68.062459
21
2.714305
0
LINE
8
图层 1
10
68.062459
20
2.714305
11
63.824836
21
3.890266
0
LINE
8
图层 1
10
63.824836
20
3.890266
11
59.654388
21
5.270130
0
LINE
8
图层 1
10
59.654388
20
5.270130
11
55.558491
21
6.850842
0
LINE
8
图层 1
10
55.558491
20
6.850842
11
51.544522
21
8.629346
0
LINE
8
图层 1
10
51.544522
20
8.629346
11
47.619859
21
10.602587
0
LINE
8
图层 1
10
47.619859
20
10.602587
11
43.791877
21
12.767509
0
LINE
8
图层 1
10
43.791877
20
12.767509
11
40.067954
21
15.121057
0
LINE
8
图层 1
10
40.067954
20
15.121057
11
36.455467
21
17.660174
0
LINE
8
图层 1
10
36.455467
20
17.660174
11
32.961793
21
20.381806
0
LINE
8
图层 1
10
32.961793
20
20.381806
11
29.594308
21
23.282896
0
LINE
8
图层 1
10
29.594308
20
23.282896
11
26.360390
21
26.360390
0
LINE
8
图层 1
10
26.360390
20
26.360390
11
23.282896
21
29.594308
0
LINE
8
图层 1
10
23.282896
20
29.594308
11
20.381806
21
32.961793
0
LINE
8
图层 1
10
20.381806
20
32.961793
11
17.660174
21
36.455467
0
LINE
8
图层 1
10
17.660174
20
36.455467
11
15.121057
21
40.067954
0
LINE
8
图层 1
10
15.121057
20
40.067954
11
12.767509
21
43.791877
0
LINE
8
图层 1
10
12.767509
20
43.791877
11
10.602587
21
47.619859
0
LINE
8
图层 1
10
10.602587
20
47.619859
11
8.629346
21
51.544522
0
LINE
8
图层 1
10
8.629346
20
51.544522
11
6.850842
21
55.558491
0
LINE
8
图层 1
10
6.850842
20
55.558491
11
5.270130
21
59.654388
0
LINE
8
图层 1
10
5.270130
20
59.654388
11
3.890266
21
63.824836
0
LINE
8
图层 1
10
3.890266
20
63.824836
11
2.714305
21
68.062459
0
LINE
8
图层 1
10
2.714305
20
68.062459
11
1.745304
21
72.359880
0
LINE
8
图层 1
10
1.745304
20
72.359880
11
0.986317
21
76.709721
0
LINE
8
图层 1
10
0.986317
20
76.709721
11
0.440400
21
81.104606
0
LINE
8
图层 1
10
0.440400
20
81.104606
11
0.110609
21
85.537158
0
LINE
8
图层 1
10
0.110609
20
85.537158
11
0.000000
21
90.000000
0
LINE
8
图层 1
10
0.000000
20
90.000000
11
0.110609
21
94.462842
0
LINE
8
图层 1
10
0.110609
20
94.462842
11
0.440400
21
98.895394
0
LINE
8
图层 1
10
0.440400
20
98.895394
11
0.986317
21
103.290279
0
LINE
8
图层 1
10
0.986317
20
103.290279
11
1.745304
21
107.640120
0
LINE
8
图层 1
10
1.745304
20
107.640120
11
2.714305
21
111.937541
0
LINE
8
图层 1
10
2.714305
20
111.937541
11
3.890266
21
116.175164
0
LINE
8
图层 1
10
3.890266
20
116.175164
11
5.270130
21
120.345612
0
LINE
8
图层 1
10
5.270130
20
120.345612
11
6.850842
21
124.441509
0
LINE
8
图层 1
10
6.850842
20
124.441509
11
8.629346
21
128.455478
0
LINE
8
图层 1
10
8.629346
20
128.455478
11
10.602587
21
132.380141
0
LINE
8
图层 1
10
10.602587
20
132.380141
11
12.767509
21
136.208123
0
LINE
8
图层 1
10
12.767509
20
136.208123
11
15.121057
21
139.932046
0
LINE
8
图层 1
10
15.121057
20
139.932046
11
17.660174
21
143.544533
0
LINE
8
图层 1
10
17.660174
20
143.544533
11
20.381806
21
147.038207
0
LINE
8
图层 1
10
20.381806
20
147.038207
11
23.282896
21
150.405692
0
LINE
8
图层 1
10
23.282896
20
150.405692
11
26.360390
21
153.639610
0
LINE
8
图层 1
10
26.360390
20
153.639610
11
29.594308
21
156.717104
0
LINE
8
图层 1
10
29.594308
20
156.717104
11
32.961793
21
159.618194
0
LINE
8
图层 1
10
32.961793
20
159.618194
11
36.455467
21
162.339826
0
LINE
8
图层 1
10
36.455467
20
162.339826
11
40.067954
21
164.878943
0
LINE
8
图层 1
10
40.067954
20
164.878943
11
43.791877
21
167.232491
0
LINE
8
图层 1
10
43.791877
20
167.232491
11
47.619859
21
169.397413
0
LINE
8
图层 1
10
47.619859
20
169.397413
11
51.544522
21
171.370654
0
LINE
8
图层 1
10
51.544522
20
171.370654
11
55.558491
21
173.149158
0
LINE
8
图层 1
10
55.558491
20
173.149158
11
59.654388
21
174.729870
0
LINE
8
图层 1
10
59.654388
20
174.729870
11
63.824836
21
176.109734
0
LINE
8
图层 1
10
63.824836
20
176.109734
11
68.062459
21
177.285695
0
LINE
8
图层 1
10
68.062459
20
177.285695
11
72.359880
21
178.254696
0
LINE
8
图层 1
10
72.359880
20
178.254696
11
76.709721
21
179.013683
0
LINE
8
图层 1
10
76.709721
20
179.013683
11
81.104606
21
179.559600
0
LINE
8
图层 1
10
81.104606
20
179.559600
11
85.537158
21
179.889391
0
LINE
8
图层 1
10
85.537158
20
179.889391
11
90.000000
21
180.000000
0
LINE
8
图层 1
10
90.000000
20
180.000000
11
94.462842
21
179.889391
0
LINE
8
图层 1
10
94.462842
20
179.889391
11
98.895394
21
179.559600
0
LINE
8
图层 1
10
98.895394
20
179.559600
11
103.290279
21
179.013683
0
LINE
8
图层 1
10
103.290279
20
179.013683
11
107.640120
21
178.254696
0
LINE
8
图层 1
10
107.640120
20
178.254696
11
111.937541
21
177.285695
0
LINE
8
图层 1
10
111.937541
20
177.285695
11
116.175164
21
176.109734
0
LINE
8
图层 1
10
116.175164
20
176.109734
11
120.345612
21
174.729870
0
LINE
8
图层 1
10
120.345612
20
174.729870
11
124.441509
21
173.149158
0
LINE
8
图层 1
10
124.441509
20
173.149158
11
128.455478
21
171.370654
0
LINE
8
图层 1
10
128.455478
20
171.370654
11
132.380141
21
169.397413
0
LINE
8
图层 1
10
132.380141
20
169.397413
11
136.208123
21
167.232491
0
LINE
8
图层 1
10
136.208123
20
167.232491
11
139.932046
21
164.878943
0
LINE
8
图层 1
10
139.932046
20
164.878943
11
143.544533
21
162.339826
0
LINE
8
图层 1
10
143.544533
20
162.339826
11
147.038207
21
159.618194
0
LINE
8
图层 1
10
147.038207
20
159.618194
11
150.405692
21
156.717104
0
LINE
8
图层 1
10
150.405692
20
156.717104
11
153.639610
21
153.639610
0
LINE
8
图层 1
10
153.639610
20
153.639610
11
156.717104
21
150.405692
0
LINE
8
图层 1
10
156.717104
20
150.405692
11
159.618194
21
147.038207
0
LINE
8
图层 1
10
159.618194
20
147.038207
11
162.339826
21
143.544533
0
LINE
8
图层 1
10
162.339826
20
143.544533
11
164.878943
21
139.932046
0
LINE
8
图层 1
10
164.878943
20
139.932046
11
167.232491
21
136.208123
0
LINE
8
图层 1
10
167.232491
20
136.208123
11
169.397413
21
132.380141
0
LINE
8
图层 1
10
169.397413
20
132.380141
11
171.370654
21
128.455478
0
LINE
8
图层 1
10
171.370654
20
128.455478
11
173.149158
21
124.441509
0
LINE
8
图层 1
10
173.149158
20
124.441509
11
174.729870
21
120.345612
0
LINE
8
图层 1
10
174.729870
20
120.345612
11
176.109734
21
116.175164
0
LINE
8
图层 1
10
176.109734
20
116.175164
11
177.285695
21
111.937541
0
LINE
8
图层 1
10
177.285695
20
111.937541
11
178.254696
21
107.640120
0
LINE
8
图层 1
10
178.254696
20
107.640120
11
179.013683
21
103.290279
0
LINE
8
图层 1
10
179.013683
20
103.290279
11
179.559600
21
98.895394
0
LINE
8
图层 1
10
179.559600
20
98.895394
11
179.889391
21
94.462842
0
LINE
8
图层 1
10
179.889391
20
94.462842
11
180.000000
21
90.000000
0
LINE
8
图层 1
10
180.000000
20
90.000000
11
180.000000
21
90.000000
0
LINE
8
图层 1
10
97.600000
20
90.000000
11
97.478207
21
89.387707
0
LINE
8
图层 1
10
97.478207
20
89.387707
11
97.131371
21
88.868629
0
LINE
8
图层 1
10
97.131371
20
88.868629
11
96.612293
21
88.521793
0
LINE
8
图层 1
10
96.612293
20
88.521793
11
96.000000
21
88.400000
0
LINE
8
图层 1
10
96.000000
20
88.400000
11
95.387707
21
88.521793
0
LINE
8
图层 1
10
95.387707
20
88.521793
11
94.868629
21
88.868629
0
LINE
8
图层 1
10
94.868629
20
88.868629
11
94.521793
21
89.387707
0
LINE
8
图层 1
10
94.521793
20
89.387707
11
94.400000
21
90.000000
0
LINE
8
图层 1
10
94.400000
20
90.000000
11
94.521793
21
90.612293
0
LINE
8
图层 1
10
94.521793
20
90.612293
11
94.868629
21
91.131371
0
LINE
8
图层 1
10
94.868629
20
91.131371
11
95.387707
21
91.478207
0
LINE
8
图层 1
10
95.387707
20
91.478207
11
96.000000
21
91.600000
0
LINE
8
图层 1
10
96.000000
20
91.600000
11
96.612293
21
91.478207
0
LINE
8
图层 1
10
96.612293
20
91.478207
11
97.131371
21
91.131371
0
LINE
8
图层 1
10
97.131371
20
91.131371
11
97.478207
21
90.612293
0
LINE
8
图层 1
10
97.478207
20
90.612293
11
97.600000
21
90.000000
0
LINE
8
图层 1
10
97.600000
20
90.000000
11
97.600000
21
90.000000
0
LINE
8
图层 1
10
85.600000
20
90.000000
11
85.478207
21
89.387707
0
LINE
8
图层 1
10
85.478207
20
89.387707
11
85.131371
21
88.868629
0
LINE
8
图层 1
10
85.131371
20
88.868629
11
84.612293
21
88.521793
0
LINE
8
图层 1
10
84.612293
20
88.521793
11
84.000000
21
88.400000
0
LINE
8
图层 1
10
84.000000
20
88.400000
11
83.387707
21
88.521793
0
LINE
8
图层 1
10
83.387707
20
88.521793
11
82.868629
21
88.868629
0
LINE
8
图层 1
10
82.868629
20
88.868629
11
82.521793
21
89.387707
0
LINE
8
图层 1
10
82.521793
20
89.387707
11
82.400000
21
90.000000
0
LINE
8
图层 1
10
82.400000
20
90.000000
11
82.521793
21
90.612293
0
LINE
8
图层 1
10
82.521793
20
90.612293
11
82.868629
21
91.131371
0
LINE
8
图层 1
10
82.868629
20
91.131371
11
83.387707
21
91.478207
0
LINE
8
图层 1
10
83.387707
20
91.478207
11
84.000000
21
91.600000
0
LINE
8
图层 1
10
84.000000
20
91.600000
11
84.612293
21
91.478207
0
LINE
8
图层 1
10
84.612293
20
91.478207
11
85.131371
21
91.131371
0
LINE
8
图层 1
10
85.131371
20
91.131371
11
85.478207
21
90.612293
0
LINE
8
图层 1
10
85.478207
20
90.612293
11
85.600000
21
90.000000
0
LINE
8
图层 1
10
85.600000
20
90.000000
11
85.600000
21
90.000000
0
LINE
8
图层 1
10
91.600000
20
84.000000
11
91.478207
21
83.387707
0
LINE
8
图层 1
10
91.478207
20
83.387707
11
91.131371
21
82.868629
0
LINE
8
图层 1
10
91.131371
20
82.868629
11
90.612293
21
82.521793
0
LINE
8
图层 1
10
90.612293
20
82.521793
11
90.000000
21
82.400000
0
LINE
8
图层 1
10
90.000000
20
82.400000
11
89.387707
21
82.521793
0
LINE
8
图层 1
10
89.387707
20
82.521793
11
88.868629
21
82.868629
0
LINE
8
图层 1
10
88.868629
20
82.868629
11
88.521793
21
83.387707
0
LINE
8
图层 1
10
88.521793
20
83.387707
11
88.400000
21
84.000000
0
LINE
8
图层 1
10
88.400000
20
84.000000
11
88.521793
21
84.612293
0
LINE
8
图层 1
10
88.521793
20
84.612293
11
88.868629
21
85.131371
0
LINE
8
图层 1
10
88.868629
20
85.131371
11
89.387707
21
85.478207
0
LINE
8
图层 1
10
89.387707
20
85.478207
11
90.000000
21
85.600000
0
LINE
8
图层 1
10
90.000000
20
85.600000
11
90.612293
21
85.478207
0
LINE
8
图层 1
10
90.612293
20
85.478207
11
91.131371
21
85.131371
0
LINE
8
图层 1
10
91.131371
20
85.131371
11
91.478207
21
84.612293
0
LINE
8
图层 1
10
91.478207
20
84.612293
11
91.600000
21
84.000000
0
LINE
8
图层 1
10
91.600000
20
84.000000
11
91.600000
21
84.000000
0
LINE
8
图层 1
10
91.600000
20
96.000000
11
91.478207
21
95.387707
0
LINE
8
图层 1
10
91.478207
20
95.387707
11
91.131371
21
94.868629
0
LINE
8
图层 1
10
91.131371
20
94.868629
11
90.612293
21
94.521793
0
LINE
8
图层 1
10
90.612293
20
94.521793
11
90.000000
21
94.400000
0
LINE
8
图层 1
10
90.000000
20
94.400000
11
89.387707
21
94.521793
0
LINE
8
图层 1
10
89.387707
20
94.521793
11
88.868629
21
94.868629
0
LINE
8
图层 1
10
88.868629
20
94.868629
11
88.521793
21
95.387707
0
LINE
8
图层 1
10
88.521793
20
95.387707
11
88.400000
21
96.000000
0
LINE
8
图层 1
10
88.400000
20
96.000000
11
88.521793
21
96.612293
0
LINE
8
图层 1
10
88.521793
20
96.612293
11
88.868629
21
97.131371
0
LINE
8
图层 1
10
88.868629
20
97.131371
11
89.387707
21
97.478207
0
LINE
8
图层 1
10
89.387707
20
97.478207
11
90.000000
21
97.600000
0
LINE
8
图层 1
10
90.000000
20
97.600000
11
90.612293
21
97.478207
0
LINE
8
图层 1
10
90.612293
20
97.478207
11
91.131371
21
97.131371
0
LINE
8
图层 1
10
91.131371
20
97.131371
11
91.478207
21
96.612293
0
LINE
8
图层 1
10
91.478207
20
96.612293
11
91.600000
21
96.000000
0
LINE
8
图层 1
10
91.600000
20
96.000000
11
91.600000
21
96.000000
 0 
ENDSEC
 0 
EOF