999
"DXF R12 Output" (www.mydxf.blogspot.com)
 0 
SECTION
 2 
HEADER
 9 
$ACADVER
 1 
AC1009
 9 
$EXTMIN
 10 
 0 
 20 
 0 
 9 
$EXTMAX
 10 
 8.5 
 20 
 11 
 0 
ENDSEC
 0 
SECTION
 2 
ENTITIES
0
LINE
8
图层 1
10
170.000000
20
85.000000
11
169.889398
21
80.625912
0
LINE
8
图层 1
10
169.889398
20
80.625912
11
169.561154
21
76.309245
0
LINE
8
图层 1
10
169.561154
20
76.309245
11
169.020608
21
72.055339
0
LINE
8
图层 1
10
169.020608
20
72.055339
11
168.273100
21
67.869537
0
LINE
8
图层 1
10
168.273100
20
67.869537
11
167.323973
21
63.757178
0
LINE
8
图层 1
10
167.323973
20
63.757178
11
166.178566
21
59.723603
0
LINE
8
图层 1
10
166.178566
20
59.723603
11
164.842220
21
55.774152
0
LINE
8
图层 1
10
164.842220
20
55.774152
11
163.320276
21
51.914167
0
LINE
8
图层 1
10
163.320276
20
51.914167
11
161.618074
21
48.148989
0
LINE
8
图层 1
10
161.618074
20
48.148989
11
159.740956
21
44.483957
0
LINE
8
图层 1
10
159.740956
20
44.483957
11
157.694261
21
40.924413
0
LINE
8
图层 1
10
157.694261
20
40.924413
11
155.483332
21
37.475697
0
LINE
8
图层 1
10
155.483332
20
37.475697
11
153.113507
21
34.143150
0
LINE
8
图层 1
10
153.113507
20
34.143150
11
150.590129
21
30.932112
0
LINE
8
图层 1
10
150.590129
20
30.932112
11
147.918537
21
27.847926
0
LINE
8
图层 1
10
147.918537
20
27.847926
11
145.104073
21
24.895930
0
LINE
8
图层 1
10
145.104073
20
24.895930
11
142.152077
21
22.081466
0
LINE
8
图层 1
10
142.152077
20
22.081466
11
139.067890
21
19.409875
0
LINE
8
图层 1
10
139.067890
20
19.409875
11
135.856852
21
16.886497
0
LINE
8
图层 1
10
135.856852
20
16.886497
11
132.524305
21
14.516673
0
LINE
8
图层 1
10
132.524305
20
14.516673
11
129.075589
21
12.305743
0
LINE
8
图层 1
10
129.075589
20
12.305743
11
125.516044
21
10.259049
0
LINE
8
图层 1
10
125.516044
20
10.259049
11
121.851012
21
8.381932
0
LINE
8
图层 1
10
121.851012
20
8.381932
11
118.085834
21
6.679730
0
LINE
8
图层 1
10
118.085834
20
6.679730
11
114.225848
21
5.157787
0
LINE
8
图层 1
10
114.225848
20
5.157787
11
110.276398
21
3.821441
0
LINE
8
图层 1
10
110.276398
20
3.821441
11
106.242823
21
2.676035
0
LINE
8
图层 1
10
106.242823
20
2.676035
11
102.130463
21
1.726908
0
LINE
8
图层 1
10
102.130463
20
1.726908
11
97.944661
21
0.979401
0
LINE
8
图层 1
10
97.944661
20
0.979401
11
93.690756
21
0.438855
0
LINE
8
图层 1
10
93.690756
20
0.438855
11
89.374088
21
0.110611
0
LINE
8
图层 1
10
89.374088
20
0.110611
11
85.000000
21
0.000010
0
LINE
8
图层 1
10
85.000000
20
0.000010
11
80.625912
21
0.110611
0
LINE
8
图层 1
10
80.625912
20
0.110611
11
76.309244
21
0.438855
0
LINE
8
图层 1
10
76.309244
20
0.438855
11
72.055339
21
0.979401
0
LINE
8
图层 1
10
72.055339
20
0.979401
11
67.869537
21
1.726908
0
LINE
8
图层 1
10
67.869537
20
1.726908
11
63.757177
21
2.676035
0
LINE
8
图层 1
10
63.757177
20
2.676035
11
59.723602
21
3.821441
0
LINE
8
图层 1
10
59.723602
20
3.821441
11
55.774152
21
5.157787
0
LINE
8
图层 1
10
55.774152
20
5.157787
11
51.914166
21
6.679730
0
LINE
8
图层 1
10
51.914166
20
6.679730
11
48.148988
21
8.381932
0
LINE
8
图层 1
10
48.148988
20
8.381932
11
44.483956
21
10.259049
0
LINE
8
图层 1
10
44.483956
20
10.259049
11
40.924411
21
12.305743
0
LINE
8
图层 1
10
40.924411
20
12.305743
11
37.475695
21
14.516673
0
LINE
8
图层 1
10
37.475695
20
14.516673
11
34.143148
21
16.886497
0
LINE
8
图层 1
10
34.143148
20
16.886497
11
30.932110
21
19.409875
0
LINE
8
图层 1
10
30.932110
20
19.409875
11
27.847923
21
22.081466
0
LINE
8
图层 1
10
27.847923
20
22.081466
11
24.895927
21
24.895930
0
LINE
8
图层 1
10
24.895927
20
24.895930
11
22.081463
21
27.847926
0
LINE
8
图层 1
10
22.081463
20
27.847926
11
19.409871
21
30.932112
0
LINE
8
图层 1
10
19.409871
20
30.932112
11
16.886493
21
34.143150
0
LINE
8
图层 1
10
16.886493
20
34.143150
11
14.516668
21
37.475697
0
LINE
8
图层 1
10
14.516668
20
37.475697
11
12.305739
21
40.924413
0
LINE
8
图层 1
10
12.305739
20
40.924413
11
10.259044
21
44.483957
0
LINE
8
图层 1
10
10.259044
20
44.483957
11
8.381926
21
48.148989
0
LINE
8
图层 1
10
8.381926
20
48.148989
11
6.679724
21
51.914167
0
LINE
8
图层 1
10
6.679724
20
51.914167
11
5.157780
21
55.774152
0
LINE
8
图层 1
10
5.157780
20
55.774152
11
3.821434
21
59.723603
0
LINE
8
图层 1
10
3.821434
20
59.723603
11
2.676027
21
63.757178
0
LINE
8
图层 1
10
2.676027
20
63.757178
11
1.726900
21
67.869537
0
LINE
8
图层 1
10
1.726900
20
67.869537
11
0.979392
21
72.055339
0
LINE
8
图层 1
10
0.979392
20
72.055339
11
0.438846
21
76.309245
0
LINE
8
图层 1
10
0.438846
20
76.309245
11
0.110602
21
80.625912
0
LINE
8
图层 1
10
0.110602
20
80.625912
11
0.000000
21
85.000000
0
LINE
8
图层 1
10
0.000000
20
85.000000
11
0.104464
21
89.214907
0
LINE
8
图层 1
10
0.104464
20
89.214907
11
0.415933
21
93.401206
0
LINE
8
图层 1
10
0.415933
20
93.401206
11
0.931521
21
97.551930
0
LINE
8
图层 1
10
0.931521
20
97.551930
11
1.648342
21
101.660114
0
LINE
8
图层 1
10
1.648342
20
101.660114
11
2.563510
21
105.718789
0
LINE
8
图层 1
10
2.563510
20
105.718789
11
3.674140
21
109.720988
0
LINE
8
图层 1
10
3.674140
20
109.720988
11
4.977345
21
113.659745
0
LINE
8
图层 1
10
4.977345
20
113.659745
11
6.470240
21
117.528092
0
LINE
8
图层 1
10
6.470240
20
117.528092
11
8.149938
21
121.319062
0
LINE
8
图层 1
10
8.149938
20
121.319062
11
10.013555
21
125.025689
0
LINE
8
图层 1
10
10.013555
20
125.025689
11
12.058203
21
128.641005
0
LINE
8
图层 1
10
12.058203
20
128.641005
11
14.280998
21
132.158043
0
LINE
8
图层 1
10
14.280998
20
132.158043
11
16.679054
21
135.569836
0
LINE
8
图层 1
10
16.679054
20
135.569836
11
19.249483
21
138.869418
0
LINE
8
图层 1
10
19.249483
20
138.869418
11
21.989402
21
142.049820
0
LINE
8
图层 1
10
21.989402
20
142.049820
11
24.895924
21
145.104076
0
LINE
8
图层 1
10
24.895924
20
145.104076
11
27.950180
21
148.010598
0
LINE
8
图层 1
10
27.950180
20
148.010598
11
31.130582
21
150.750517
0
LINE
8
图层 1
10
31.130582
20
150.750517
11
34.430164
21
153.320946
0
LINE
8
图层 1
10
34.430164
20
153.320946
11
37.841957
21
155.719002
0
LINE
8
图层 1
10
37.841957
20
155.719002
11
41.358995
21
157.941797
0
LINE
8
图层 1
10
41.358995
20
157.941797
11
44.974311
21
159.986445
0
LINE
8
图层 1
10
44.974311
20
159.986445
11
48.680938
21
161.850062
0
LINE
8
图层 1
10
48.680938
20
161.850062
11
52.471908
21
163.529760
0
LINE
8
图层 1
10
52.471908
20
163.529760
11
56.340255
21
165.022655
0
LINE
8
图层 1
10
56.340255
20
165.022655
11
60.279012
21
166.325860
0
LINE
8
图层 1
10
60.279012
20
166.325860
11
64.281211
21
167.436490
0
LINE
8
图层 1
10
64.281211
20
167.436490
11
68.339886
21
168.351658
0
LINE
8
图层 1
10
68.339886
20
168.351658
11
72.448070
21
169.068479
0
LINE
8
图层 1
10
72.448070
20
169.068479
11
76.598794
21
169.584067
0
LINE
8
图层 1
10
76.598794
20
169.584067
11
80.785094
21
169.895536
0
LINE
8
图层 1
10
80.785094
20
169.895536
11
85.000000
21
170.000000
0
LINE
8
图层 1
10
85.000000
20
170.000000
11
89.214906
21
169.895536
0
LINE
8
图层 1
10
89.214906
20
169.895536
11
93.401206
21
169.584067
0
LINE
8
图层 1
10
93.401206
20
169.584067
11
97.551930
21
169.068479
0
LINE
8
图层 1
10
97.551930
20
169.068479
11
101.660114
21
168.351658
0
LINE
8
图层 1
10
101.660114
20
168.351658
11
105.718789
21
167.436490
0
LINE
8
图层 1
10
105.718789
20
167.436490
11
109.720988
21
166.325860
0
LINE
8
图层 1
10
109.720988
20
166.325860
11
113.659745
21
165.022655
0
LINE
8
图层 1
10
113.659745
20
165.022655
11
117.528092
21
163.529760
0
LINE
8
图层 1
10
117.528092
20
163.529760
11
121.319062
21
161.850062
0
LINE
8
图层 1
10
121.319062
20
161.850062
11
125.025689
21
159.986445
0
LINE
8
图层 1
10
125.025689
20
159.986445
11
128.641005
21
157.941797
0
LINE
8
图层 1
10
128.641005
20
157.941797
11
132.158043
21
155.719002
0
LINE
8
图层 1
10
132.158043
20
155.719002
11
135.569836
21
153.320946
0
LINE
8
图层 1
10
135.569836
20
153.320946
11
138.869418
21
150.750517
0
LINE
8
图层 1
10
138.869418
20
150.750517
11
142.049820
21
148.010598
0
LINE
8
图层 1
10
142.049820
20
148.010598
11
145.104076
21
145.104076
0
LINE
8
图层 1
10
145.104076
20
145.104076
11
148.010598
21
142.049820
0
LINE
8
图层 1
10
148.010598
20
142.049820
11
150.750517
21
138.869418
0
LINE
8
图层 1
10
150.750517
20
138.869418
11
153.320946
21
135.569836
0
LINE
8
图层 1
10
153.320946
20
135.569836
11
155.719002
21
132.158043
0
LINE
8
图层 1
10
155.719002
20
132.158043
11
157.941797
21
128.641005
0
LINE
8
图层 1
10
157.941797
20
128.641005
11
159.986445
21
125.025689
0
LINE
8
图层 1
10
159.986445
20
125.025689
11
161.850062
21
121.319062
0
LINE
8
图层 1
10
161.850062
20
121.319062
11
163.529760
21
117.528092
0
LINE
8
图层 1
10
163.529760
20
117.528092
11
165.022655
21
113.659745
0
LINE
8
图层 1
10
165.022655
20
113.659745
11
166.325860
21
109.720988
0
LINE
8
图层 1
10
166.325860
20
109.720988
11
167.436490
21
105.718789
0
LINE
8
图层 1
10
167.436490
20
105.718789
11
168.351658
21
101.660114
0
LINE
8
图层 1
10
168.351658
20
101.660114
11
169.068479
21
97.551930
0
LINE
8
图层 1
10
169.068479
20
97.551930
11
169.584067
21
93.401206
0
LINE
8
图层 1
10
169.584067
20
93.401206
11
169.895536
21
89.214906
0
LINE
8
图层 1
10
169.895536
20
89.214906
11
170.000000
21
85.000000
0
LINE
8
图层 1
10
170.000000
20
85.000000
11
170.000000
21
85.000000
0
LINE
8
图层 1
10
92.600000
20
85.000000
11
92.478207
21
84.387707
0
LINE
8
图层 1
10
92.478207
20
84.387707
11
92.131371
21
83.868629
0
LINE
8
图层 1
10
92.131371
20
83.868629
11
91.612293
21
83.521793
0
LINE
8
图层 1
10
91.612293
20
83.521793
11
91.000000
21
83.400000
0
LINE
8
图层 1
10
91.000000
20
83.400000
11
90.387707
21
83.521793
0
LINE
8
图层 1
10
90.387707
20
83.521793
11
89.868629
21
83.868629
0
LINE
8
图层 1
10
89.868629
20
83.868629
11
89.521793
21
84.387707
0
LINE
8
图层 1
10
89.521793
20
84.387707
11
89.400000
21
85.000000
0
LINE
8
图层 1
10
89.400000
20
85.000000
11
89.521793
21
85.612293
0
LINE
8
图层 1
10
89.521793
20
85.612293
11
89.868629
21
86.131371
0
LINE
8
图层 1
10
89.868629
20
86.131371
11
90.387707
21
86.478207
0
LINE
8
图层 1
10
90.387707
20
86.478207
11
91.000000
21
86.600000
0
LINE
8
图层 1
10
91.000000
20
86.600000
11
91.612293
21
86.478207
0
LINE
8
图层 1
10
91.612293
20
86.478207
11
92.131371
21
86.131371
0
LINE
8
图层 1
10
92.131371
20
86.131371
11
92.478207
21
85.612293
0
LINE
8
图层 1
10
92.478207
20
85.612293
11
92.600000
21
85.000000
0
LINE
8
图层 1
10
92.600000
20
85.000000
11
92.600000
21
85.000000
0
LINE
8
图层 1
10
80.600000
20
85.000000
11
80.478207
21
84.387707
0
LINE
8
图层 1
10
80.478207
20
84.387707
11
80.131371
21
83.868629
0
LINE
8
图层 1
10
80.131371
20
83.868629
11
79.612293
21
83.521793
0
LINE
8
图层 1
10
79.612293
20
83.521793
11
79.000000
21
83.400000
0
LINE
8
图层 1
10
79.000000
20
83.400000
11
78.387707
21
83.521793
0
LINE
8
图层 1
10
78.387707
20
83.521793
11
77.868629
21
83.868629
0
LINE
8
图层 1
10
77.868629
20
83.868629
11
77.521793
21
84.387707
0
LINE
8
图层 1
10
77.521793
20
84.387707
11
77.400000
21
85.000000
0
LINE
8
图层 1
10
77.400000
20
85.000000
11
77.521793
21
85.612293
0
LINE
8
图层 1
10
77.521793
20
85.612293
11
77.868629
21
86.131371
0
LINE
8
图层 1
10
77.868629
20
86.131371
11
78.387707
21
86.478207
0
LINE
8
图层 1
10
78.387707
20
86.478207
11
79.000000
21
86.600000
0
LINE
8
图层 1
10
79.000000
20
86.600000
11
79.612293
21
86.478207
0
LINE
8
图层 1
10
79.612293
20
86.478207
11
80.131371
21
86.131371
0
LINE
8
图层 1
10
80.131371
20
86.131371
11
80.478207
21
85.612293
0
LINE
8
图层 1
10
80.478207
20
85.612293
11
80.600000
21
85.000000
0
LINE
8
图层 1
10
80.600000
20
85.000000
11
80.600000
21
85.000000
0
LINE
8
图层 1
10
86.600000
20
79.000000
11
86.478207
21
78.387707
0
LINE
8
图层 1
10
86.478207
20
78.387707
11
86.131371
21
77.868629
0
LINE
8
图层 1
10
86.131371
20
77.868629
11
85.612293
21
77.521793
0
LINE
8
图层 1
10
85.612293
20
77.521793
11
85.000000
21
77.400000
0
LINE
8
图层 1
10
85.000000
20
77.400000
11
84.387707
21
77.521793
0
LINE
8
图层 1
10
84.387707
20
77.521793
11
83.868629
21
77.868629
0
LINE
8
图层 1
10
83.868629
20
77.868629
11
83.521793
21
78.387707
0
LINE
8
图层 1
10
83.521793
20
78.387707
11
83.400000
21
79.000000
0
LINE
8
图层 1
10
83.400000
20
79.000000
11
83.521793
21
79.612293
0
LINE
8
图层 1
10
83.521793
20
79.612293
11
83.868629
21
80.131371
0
LINE
8
图层 1
10
83.868629
20
80.131371
11
84.387707
21
80.478207
0
LINE
8
图层 1
10
84.387707
20
80.478207
11
85.000000
21
80.600000
0
LINE
8
图层 1
10
85.000000
20
80.600000
11
85.612293
21
80.478207
0
LINE
8
图层 1
10
85.612293
20
80.478207
11
86.131371
21
80.131371
0
LINE
8
图层 1
10
86.131371
20
80.131371
11
86.478207
21
79.612293
0
LINE
8
图层 1
10
86.478207
20
79.612293
11
86.600000
21
79.000000
0
LINE
8
图层 1
10
86.600000
20
79.000000
11
86.600000
21
79.000000
0
LINE
8
图层 1
10
86.600000
20
91.000000
11
86.478207
21
90.387707
0
LINE
8
图层 1
10
86.478207
20
90.387707
11
86.131371
21
89.868629
0
LINE
8
图层 1
10
86.131371
20
89.868629
11
85.612293
21
89.521793
0
LINE
8
图层 1
10
85.612293
20
89.521793
11
85.000000
21
89.400000
0
LINE
8
图层 1
10
85.000000
20
89.400000
11
84.387707
21
89.521793
0
LINE
8
图层 1
10
84.387707
20
89.521793
11
83.868629
21
89.868629
0
LINE
8
图层 1
10
83.868629
20
89.868629
11
83.521793
21
90.387707
0
LINE
8
图层 1
10
83.521793
20
90.387707
11
83.400000
21
91.000000
0
LINE
8
图层 1
10
83.400000
20
91.000000
11
83.521793
21
91.612293
0
LINE
8
图层 1
10
83.521793
20
91.612293
11
83.868629
21
92.131371
0
LINE
8
图层 1
10
83.868629
20
92.131371
11
84.387707
21
92.478207
0
LINE
8
图层 1
10
84.387707
20
92.478207
11
85.000000
21
92.600000
0
LINE
8
图层 1
10
85.000000
20
92.600000
11
85.612293
21
92.478207
0
LINE
8
图层 1
10
85.612293
20
92.478207
11
86.131371
21
92.131371
0
LINE
8
图层 1
10
86.131371
20
92.131371
11
86.478207
21
91.612293
0
LINE
8
图层 1
10
86.478207
20
91.612293
11
86.600000
21
91.000000
0
LINE
8
图层 1
10
86.600000
20
91.000000
11
86.600000
21
91.000000
 0 
ENDSEC
 0 
EOF