0
SECTION
2
HEADER
9
$INSUNITS
70
4
9
$ACADVER
1
AC1014
9
$HANDSEED
5
FFFF
0
ENDSEC
0
SECTION
2
TABLES
0
TABLE
2
VPORT
5
8
100
AcDbSymbolTable
0
ENDTAB
0
TABLE
2
LTYPE
5
5
100
AcDbSymbolTable
0
LTYPE
5
14
100
AcDbSymbolTableRecord
100
AcDbLinetypeTableRecord
2
BYBLOCK
70
0
0
LTYPE
5
15
100
AcDbSymbolTableRecord
100
AcDbLinetypeTableRecord
2
BYLAYER
70
0
0
ENDTAB
0
TABLE
2
LAYER
5
2
100
AcDbSymbolTable
70
2
0
LAYER
5
50
100
AcDbSymbolTableRecord
100
AcDbLayerTableRecord
2
0
70
0
6
CONTINUOUS
0
ENDTAB
0
TABLE
2
STYLE
5
3
100
AcDbSymbolTable
70
1
0
STYLE
5
11
100
AcDbSymbolTableRecord
100
AcDbTextStyleTableRecord
2
STANDARD
70
0
0
ENDTAB
0
TABLE
2
VIEW
5
6
100
AcDbSymbolTable
70
0
0
ENDTAB
0
TABLE
2
UCS
5
7
100
AcDbSymbolTable
70
0
0
ENDTAB
0
TABLE
2
APPID
5
9
100
AcDbSymbolTable
70
2
0
APPID
5
12
100
AcDbSymbolTableRecord
100
AcDbRegAppTableRecord
2
ACAD
70
0
0
ENDTAB
0
TABLE
2
DIMSTYLE
5
A
100
AcDbSymbolTable
70
1
0
ENDTAB
0
TABLE
2
BLOCK_RECORD
5
1
100
AcDbSymbolTable
70
1
0
BLOCK_RECORD
5
1F
100
AcDbSymbolTableRecord
100
AcDbBlockTableRecord
2
*MODEL_SPACE
0
BLOCK_RECORD
5
1B
100
AcDbSymbolTableRecord
100
AcDbBlockTableRecord
2
*PAPER_SPACE
0
ENDTAB
0
ENDSEC
0
SECTION
2
BLOCKS
0
BLOCK
5
20
100
AcDbEntity
100
AcDbBlockBegin
2
*MODEL_SPACE
0
ENDBLK
5
21
100
AcDbEntity
100
AcDbBlockEnd
0
BLOCK
5
1C
100
AcDbEntity
100
AcDbBlockBegin
2
*PAPER_SPACE
0
ENDBLK
5
1D
100
AcDbEntity
100
AcDbBlockEnd
0
ENDSEC
0
SECTION
2
ENTITIES
0
LWPOLYLINE
5
100
100
AcDbEntity
8
0
100
AcDbPolyline
90
4
70
1
43
0.0
10
-49.000000730156898
20
49.000000730156898
10
-30
20
49.000000730156898
10
-30
20
30
10
-49.000000730156898
20
30
0
LWPOLYLINE
5
101
100
AcDbEntity
8
0
100
AcDbPolyline
90
4
70
1
43
0.0
10
-55.861436230036155
20
13.435029358843302
10
-42.426406871192853
20
-4.4408920985006262e-15
10
-55.861436230036148
20
-13.4350293588433
10
-69.296465588879443
20
0
0
LWPOLYLINE
5
102
100
AcDbEntity
8
0
100
AcDbPolyline
90
4
70
1
43
0.0
10
-49.000000730156898
20
-30.000000000000018
10
-30
20
-30.000000000000018
10
-30
20
-49.000000730156898
10
-49.000000730156898
20
-49.000000730156898
0
LWPOLYLINE
5
103
100
AcDbEntity
8
0
100
AcDbPolyline
90
4
70
1
43
0.0
10
-13.435029358843307
20
-55.861436230036148
10
-4.4408920985006262e-15
20
-42.426406871192853
10
13.4350293588433
20
-55.861436230036162
10
-7.6327832942979512e-15
20
-69.296465588879443
0
LWPOLYLINE
5
104
100
AcDbEntity
8
0
100
AcDbPolyline
90
4
70
1
43
0.0
10
29.999999999999996
20
-49.000000730156898
10
29.999999999999996
20
-30.000000000000004
10
49.000000730156891
20
-30.000000000000004
10
49.000000730156891
20
-49.000000730156906
0
LWPOLYLINE
5
105
100
AcDbEntity
8
0
100
AcDbPolyline
90
4
70
1
43
0.0
10
55.861436230036176
20
-13.435029358843316
10
42.426406871192846
20
0
10
55.861436230036141
20
13.435029358843298
10
69.296465588879443
20
-1.5404344466674047e-14
0
LWPOLYLINE
5
106
100
AcDbEntity
8
0
100
AcDbPolyline
90
4
70
1
43
0.0
10
49.000000730156898
20
29.999999999999993
10
30.000000000000007
20
29.999999999999993
10
30.000000000000007
20
49.000000730156891
10
49.000000730156906
20
49.000000730156891
0
LWPOLYLINE
5
107
100
AcDbEntity
8
0
100
AcDbPolyline
90
4
70
1
43
0.0
10
13.435029358843316
20
55.861436230036155
10
8.8817841970012523e-15
20
42.426406871192846
10
-13.435029358843291
20
55.861436230036141
10
1.9290125052862095e-14
20
69.296465588879443
0
LINE
5
108
100
AcDbEntity
8
0
100
AcDbLine
10
0
20
0
30
0
11
97.000000000000014
21
0
31
0
0
LWPOLYLINE
5
109
100
AcDbEntity
8
0
100
AcDbPolyline
90
5
70
1
43
0.0
10
-39.845567545587805
20
51.000000759959221
10
-59.719163106588866
20
76.437043099852048
42
0.061162620150484188
10
-76.437043099852048
20
59.719163106588873
10
-51.000000759959221
20
39.845567545587819
10
-51.000000759959221
20
51.000000759959221
0
LINE
5
110
100
AcDbEntity
8
0
100
AcDbLine
10
0
20
0
30
0
11
97
21
0
31
0
0
LINE
5
111
100
AcDbEntity
8
0
100
AcDbLine
10
34.827259090937503
20
0
30
0
11
97
21
0
31
0
0
LWPOLYLINE
5
112
100
AcDbEntity
8
0
100
AcDbPolyline
90
6
70
1
43
0.0
10
-16.26345620963496
20
55.861436546137512
10
-9.3776397879483575
20
62.74725296782411
10
-14.33751287957225
20
95.934538746105915
42
0.1227845609029045
10
-57.69781031488013
20
77.974115479870122
10
-37.738015388793109
20
51.000000759959221
10
-28.000000417232496
20
51.000000759959249
42
-0.054750166495102309
0
LINE
5
113
100
AcDbEntity
8
0
100
AcDbLine
10
-64.237517389598011
20
-7.8873753661744805
30
0
11
-96.251317870278555
21
-11.818175801028028
31
0
0
LINE
5
114
100
AcDbEntity
8
0
100
AcDbLine
10
-64.237517389598011
20
-7.8873753661744805
30
0
11
-72.124892755772478
21
-4.4408920985006262e-15
31
0
0
LINE
5
115
100
AcDbEntity
8
0
100
AcDbLine
10
-72.124892755772478
20
-4.4408920985006262e-15
30
0
11
-64.237517389597997
21
7.887375366174485
31
0
0
LINE
5
116
100
AcDbEntity
8
0
100
AcDbLine
10
-64.237517389597997
20
7.887375366174485
30
0
11
-96.276976709208242
21
11.821326310299307
31
0
0
LWPOLYLINE
5
117
100
AcDbEntity
8
0
100
AcDbPolyline
90
6
70
1
43
0.0
10
-62.747252967824139
20
9.3776397879483433
10
-95.934538746105915
20
14.337512879572207
42
-0.12278456090290453
10
-77.974115479870093
20
57.69781031488008
10
-51.000000759959214
20
37.73801538879308
10
-51.000000759959228
20
28.000000417232531
42
0.054750166495102344
10
-55.861436546137512
20
16.263456209634967
0
LINE
5
118
100
AcDbEntity
8
0
100
AcDbLine
10
-39.845567545587819
20
-51.000000759959235
30
0
11
-51.000000759959221
21
-51.000000759959235
31
0
0
LINE
5
119
100
AcDbEntity
8
0
100
AcDbLine
10
-51.000000759959221
20
-51.000000759959235
30
0
11
-51.000000759959221
21
-39.845567545587826
31
0
0
LINE
5
120
100
AcDbEntity
8
0
100
AcDbLine
10
-51.000000759959221
20
-39.845567545587826
30
0
11
-76.437043099852048
21
-59.71916310658888
31
0
0
LWPOLYLINE
5
121
100
AcDbEntity
8
0
100
AcDbPolyline
90
6
70
1
43
0.0
10
-51.000000759959221
20
-37.73801538879313
10
-77.974115479870079
20
-57.697810314880144
42
-0.12278456090290453
10
-95.934538746105943
20
-14.337512879572273
10
-62.747252967824132
20
-9.3776397879483735
10
-55.861436546137533
20
-16.263456209634981
42
0.054750166495102344
10
-51.000000759959221
20
-28.000000417232531
0
LINE
5
122
100
AcDbEntity
8
0
100
AcDbLine
10
7.8873753661744672
20
-64.237517389598011
30
0
11
-1.3322676295501878e-14
21
-72.124892755772493
31
0
0
LINE
5
123
100
AcDbEntity
8
0
100
AcDbLine
10
-1.3322676295501878e-14
20
-72.124892755772493
30
0
11
-7.8873753661745027
21
-64.237517389597997
31
0
0
LINE
5
124
100
AcDbEntity
8
0
100
AcDbLine
10
-7.8873753661745027
20
-64.237517389597997
30
0
11
-11.821326310299334
21
-96.276976709208256
31
0
0
LWPOLYLINE
5
125
100
AcDbEntity
8
0
100
AcDbPolyline
90
6
70
1
43
0.0
10
-9.3776397879483611
20
-62.747252967824139
10
-14.337512879572238
20
-95.934538746105915
42
-0.12278456090290453
10
-57.697810314880094
20
-77.974115479870079
10
-37.738015388793102
20
-51.000000759959207
10
-28.000000417232535
20
-51.000000759959228
42
0.054750166495102344
10
-16.263456209634985
20
-55.861436546137512
0
LINE
5
126
100
AcDbEntity
8
0
100
AcDbLine
10
51.000000759959214
20
-39.845567545587826
30
0
11
51.000000759959214
21
-51.000000759959228
31
0
0
LINE
5
127
100
AcDbEntity
8
0
100
AcDbLine
10
51.000000759959214
20
-51.000000759959228
30
0
11
39.845567545587798
21
-51.000000759959228
31
0
0
LINE
5
128
100
AcDbEntity
8
0
100
AcDbLine
10
39.845567545587798
20
-51.000000759959228
30
0
11
59.719163106588844
21
-76.437043099852048
31
0
0
LWPOLYLINE
5
129
100
AcDbEntity
8
0
100
AcDbPolyline
90
6
70
1
43
0.0
10
37.738015388793109
20
-51.000000759959228
10
57.697810314880101
20
-77.974115479870079
42
-0.12278456090290453
10
14.337512879572238
20
-95.934538746105915
10
9.3776397879483504
20
-62.74725296782411
10
16.263456209634956
20
-55.861436546137526
42
0.054750166495102344
10
28.00000041723251
20
-51.000000759959221
0
LINE
5
130
100
AcDbEntity
8
0
100
AcDbLine
10
64.237517389597997
20
7.8873753661744761
30
0
11
72.124892755772478
21
0
31
0
0
LINE
5
131
100
AcDbEntity
8
0
100
AcDbLine
10
72.124892755772478
20
0
30
0
11
64.237517389597997
21
-7.8873753661744894
31
0
0
LINE
5
132
100
AcDbEntity
8
0
100
AcDbLine
10
64.237517389597997
20
-7.8873753661744894
30
0
11
96.276976709208242
21
-11.821326310299316
31
0
0
LWPOLYLINE
5
133
100
AcDbEntity
8
0
100
AcDbPolyline
90
6
70
1
43
0.0
10
62.747252967824132
20
-9.3776397879483486
10
95.934538746105957
20
-14.337512879572166
42
-0.12278456090290465
10
77.974115479870079
20
-57.69781031488008
10
51.000000759959207
20
-37.73801538879308
10
51.000000759959221
20
-28.000000417232528
42
0.054750166495102344
10
55.861436546137504
20
-16.26345620963497
0
LINE
5
134
100
AcDbEntity
8
0
100
AcDbLine
10
39.845567545587834
20
51.000000759959214
30
0
11
51.000000759959228
21
51.000000759959214
31
0
0
LINE
5
135
100
AcDbEntity
8
0
100
AcDbLine
10
51.000000759959228
20
51.000000759959214
30
0
11
51.000000759959228
21
39.845567545587791
31
0
0
LINE
5
136
100
AcDbEntity
8
0
100
AcDbLine
10
51.000000759959228
20
39.845567545587791
30
0
11
76.437043099852048
21
59.719163106588837
31
0
0
LWPOLYLINE
5
137
100
AcDbEntity
8
0
100
AcDbPolyline
90
6
70
1
43
0.0
10
51.000000759959228
20
37.738015388793102
10
77.974115479870051
20
57.69781031488013
42
-0.12278456090290465
10
95.934538746105915
20
14.337512879572227
10
62.74725296782411
20
9.3776397879483433
10
55.861436546137526
20
16.263456209634949
42
0.054750166495102601
10
51.000000759959228
20
28.000000417232499
0
LINE
5
138
100
AcDbEntity
8
0
100
AcDbLine
10
-7.8873753661744628
20
64.237517389598011
30
0
11
1.7763568394002505e-14
21
72.124892755772493
31
0
0
LINE
5
139
100
AcDbEntity
8
0
100
AcDbLine
10
1.7763568394002505e-14
20
72.124892755772493
30
0
11
7.8873753661745072
21
64.237517389597997
31
0
0
LINE
5
140
100
AcDbEntity
8
0
100
AcDbLine
10
7.8873753661745072
20
64.237517389597997
30
0
11
11.821326310299343
21
96.276976709208242
31
0
0
LWPOLYLINE
5
141
100
AcDbEntity
8
0
100
AcDbPolyline
90
6
70
1
43
0.0
10
9.3776397879483664
20
62.747252967824139
10
14.337512879572255
20
95.934538746105943
42
-0.12278456090290453
10
57.697810314880094
20
77.974115479870079
10
37.738015388793102
20
51.000000759959207
10
28.000000417232531
20
51.000000759959207
42
0.054750166495102344
10
16.263456209634988
20
55.861436546137504
0
LWPOLYLINE
5
142
100
AcDbEntity
8
0
100
AcDbPolyline
90
7
70
1
43
0.0
10
-29.505843947538271
20
28.000000417232513
10
-44.000000655651093
20
28.000000417232513
10
-50.911689004074688
20
11.313708667572149
10
-40.662772508187643
20
1.0647921716851028
10
-33.938546962017917
20
0.8887121289195774
10
-24.626591073342745
20
10.200668017594751
10
-24.626591073342748
20
23.369762327579227
0
LINE
5
143
100
AcDbEntity
8
0
100
AcDbLine
10
0
20
0
30
0
11
41.411509356461877
21
0
31
0
0
LINE
5
144
100
AcDbEntity
8
0
100
AcDbLine
10
34.827259090937503
20
0
30
0
11
43.582190137640467
21
0
31
0
0
LINE
5
145
100
AcDbEntity
8
0
100
AcDbLine
10
0.18859998871063902
20
-35.015859079648138
30
0
11
3.434752482434078e-15
21
-34.827259090937503
31
0
0
LINE
5
146
100
AcDbEntity
8
0
100
AcDbLine
10
3.434752482434078e-15
20
-34.827259090937503
30
0
11
-0.33947997967924004
21
-35.166739070616742
31
0
0
LWPOLYLINE
5
147
100
AcDbEntity
8
0
100
AcDbPolyline
90
7
70
1
43
0.0
10
-33.938546962017938
20
-0.88871212891957097
10
-40.662772508187629
20
-1.0647921716850939
10
-50.911689004074688
20
-11.313708667572156
10
-44.000000655651085
20
-28.000000417232517
10
-29.505843947538285
20
-28.000000417232513
10
-24.62659107334273
20
-23.369762327579203
10
-24.626591073342734
20
-10.200668017594767
0
LWPOLYLINE
5
148
100
AcDbEntity
8
0
100
AcDbPolyline
90
7
70
1
43
0.0
10
-23.369762327579227
20
-24.626591073342755
10
-28.000000417232513
20
-29.505843947538281
10
-28.00000041723251
20
-44.000000655651107
10
-11.31370866757214
20
-50.911689004074702
10
-1.0647921716850941
20
-40.662772508187651
10
-0.88871212891956997
20
-33.938546962017924
10
-10.200668017594749
20
-24.626591073342752
0
LWPOLYLINE
5
149
100
AcDbEntity
8
0
100
AcDbPolyline
90
7
70
1
43
0.0
10
0.8887121289195643
20
-33.938546962017938
10
1.064792171685085
20
-40.662772508187636
10
11.313708667572147
20
-50.911689004074702
10
28.000000417232513
20
-44.000000655651093
10
28.00000041723251
20
-29.505843947538292
10
23.369762327579199
20
-24.626591073342738
10
10.200668017594763
20
-24.626591073342745
0
LWPOLYLINE
5
150
100
AcDbEntity
8
0
100
AcDbPolyline
90
7
70
1
43
0.0
10
24.626591073342745
20
-23.369762327579231
10
29.505843947538267
20
-28.000000417232517
10
44.000000655651093
20
-28.000000417232517
10
50.911689004074688
20
-11.313708667572156
10
40.662772508187643
20
-1.0647921716851076
10
33.938546962017917
20
-0.88871212891958151
10
24.626591073342745
20
-10.200668017594754
0
LWPOLYLINE
5
151
100
AcDbEntity
8
0
100
AcDbPolyline
90
7
70
1
43
0.0
10
33.938546962017938
20
0.88871212891956874
10
40.662772508187629
20
1.0647921716850894
10
50.911689004074688
20
11.313708667572151
10
44.000000655651085
20
28.000000417232513
10
29.505843947538285
20
28.00000041723251
10
24.62659107334273
20
23.369762327579199
10
24.626591073342734
20
10.200668017594765
0
LWPOLYLINE
5
152
100
AcDbEntity
8
0
100
AcDbPolyline
90
7
70
1
43
0.0
10
23.369762327579231
20
24.626591073342745
10
28.000000417232517
20
29.505843947538267
10
28.000000417232521
20
44.000000655651085
10
11.313708667572159
20
50.911689004074688
10
1.0647921716851119
20
40.662772508187643
10
0.88871212891958484
20
33.938546962017917
10
10.200668017594756
20
24.626591073342738
0
LWPOLYLINE
5
153
100
AcDbEntity
8
0
100
AcDbPolyline
90
7
70
1
43
0.0
10
-0.88871212891955986
20
33.938546962017938
10
-1.0647921716850806
20
40.662772508187636
10
-11.313708667572142
20
50.911689004074702
10
-28.000000417232506
20
44.000000655651093
10
-28.000000417232506
20
29.505843947538292
10
-23.369762327579199
20
24.626591073342738
10
-10.200668017594761
20
24.626591073342738
0
LINE
5
154
100
AcDbEntity
8
0
100
AcDbLine
10
-64.237517389598011
20
-7.8873753661744805
30
0
11
-96.276976709208256
21
-11.821326310299316
31
0
0
LINE
5
155
100
AcDbEntity
8
0
100
AcDbLine
10
-39.845567545587819
20
-51.000000759959235
30
0
11
-59.719163106588866
21
-76.437043099852076
31
0
0
LINE
5
156
100
AcDbEntity
8
0
100
AcDbLine
10
7.8873753661744672
20
-64.237517389598011
30
0
11
11.821326310299289
21
-96.27697670920827
31
0
0
LINE
5
157
100
AcDbEntity
8
0
100
AcDbLine
10
51.000000759959214
20
-39.845567545587826
30
0
11
76.437043099852048
21
-59.71916310658888
31
0
0
LINE
5
158
100
AcDbEntity
8
0
100
AcDbLine
10
64.237517389597997
20
7.8873753661744761
30
0
11
96.276976709208242
21
11.821326310299307
31
0
0
LINE
5
159
100
AcDbEntity
8
0
100
AcDbLine
10
39.845567545587834
20
51.000000759959214
30
0
11
59.719163106588894
21
76.437043099852048
31
0
0
LINE
5
160
100
AcDbEntity
8
0
100
AcDbLine
10
-7.8873753661744628
20
64.237517389598011
30
0
11
-11.82132631029928
21
96.27697670920827
31
0
0
ARC
5
161
100
AcDbEntity
8
0
100
AcDbCircle
10
0
20
0
30
0
40
97.000000000000014
210
0
220
-0
230
1
100
AcDbArc
50
82.999999999999972
51
96.999999999999972
0
ARC
5
162
100
AcDbEntity
8
0
100
AcDbCircle
10
0
20
0
30
0
40
97
210
0
220
-0
230
1
100
AcDbArc
50
37.999999999999979
51
51.999999999999986
0
ARC
5
163
100
AcDbEntity
8
0
100
AcDbCircle
10
0
20
0
30
0
40
97.000000000000014
210
0
220
0
230
1
100
AcDbArc
50
-7.0000000000000222
51
6.9999999999999725
0
ARC
5
164
100
AcDbEntity
8
0
100
AcDbCircle
10
0
20
0
30
0
40
97.000000000000014
210
0
220
0
230
1
100
AcDbArc
50
307.99999999999994
51
321.99999999999994
0
ARC
5
165
100
AcDbEntity
8
0
100
AcDbCircle
10
0
20
0
30
0
40
97.000000000000028
210
0
220
0
230
1
100
AcDbArc
50
263
51
276.99999999999994
0
ARC
5
166
100
AcDbEntity
8
0
100
AcDbCircle
10
0
20
0
30
0
40
97.000000000000028
210
0
220
0
230
1
100
AcDbArc
50
218.00000000000003
51
232
0
ARC
5
167
100
AcDbEntity
8
0
100
AcDbCircle
10
0
20
0
30
0
40
97
210
0
220
0
230
1
100
AcDbArc
50
173.00000000000003
51
186.99999999999997
0
LWPOLYLINE
5
168
100
AcDbEntity
8
0
100
AcDbPolyline
90
6
70
1
43
0.0
10
18.432991824831404
20
7.635195208957553
10
18.432991824831401
20
-7.6351952089575654
10
7.6351952089575459
20
-18.432991824831404
10
1.0000000149011452
20
-18.432991824831401
10
1.0000000149011645
20
18.432991824831404
10
7.6351952089575512
20
18.432991824831404
0
LWPOLYLINE
5
169
100
AcDbEntity
8
0
100
AcDbPolyline
90
6
70
1
43
0.0
10
-18.432991824831401
20
7.6351952089575601
10
-7.6351952089575441
20
18.432991824831404
10
-1.0000000149011687
20
18.432991824831408
10
-1.0000000149011883
20
-18.432991824831404
10
-7.6351952089575637
20
-18.432991824831397
10
-18.432991824831404
20
-7.6351952089575503
0
ENDSEC
0
SECTION
2
OBJECTS
0
DICTIONARY
5
C
100
AcDbDictionary
3
ACAD_GROUP
350
D
3
ACAD_MLINESTYLE
350
17
0
DICTIONARY
5
D
100
AcDbDictionary
0
DICTIONARY
5
1A
330
C
100
AcDbDictionary
0
DICTIONARY
5
17
100
AcDbDictionary
0
ENDSEC
0
EOF
