ISO-10303-21;
HEADER;
/* Generated by software containing ST-Developer
 * from STEP Tools, Inc. (www.steptools.com) 
 */
/* OPTION: using custom renumber hook */

FILE_DESCRIPTION(
/* description */ ('STEP AP242',
'CAx-IF Rec.Pracs.---Representation and Presentation of Product Manufa
cturing Information (PMI)---4.0---2014-10-13',
'CAx-IF Rec.Pracs.---3D Tessellated Geometry---0.4---2014-09-14','2;1'),

/* implementation_level */ '2;1');

FILE_NAME(
/* name */ '64eb3a4d6e5c8f3effc7bfb2',
/* time_stamp */ '2023-08-27T11:58:06Z',
/* author */ (''),
/* organization */ (''),
/* preprocessor_version */ 'ST-DEVELOPER v19.4',
/* originating_system */ '  ',
/* authorisation */ '  ');

FILE_SCHEMA (('AP242_MANAGED_MODEL_BASED_3D_ENGINEERING_MIM_LF { 1 0 10303 442 1 1 4 }'));
ENDSEC;

DATA;
#10=SHAPE_REPRESENTATION_RELATIONSHIP('','',#313,#11);
#11=ADVANCED_BREP_SHAPE_REPRESENTATION('',(#311),#519);
#12=PLANE('',#318);
#13=PLANE('',#322);
#14=PLANE('',#323);
#15=PLANE('',#324);
#16=PLANE('',#346);
#17=PLANE('',#347);
#18=PLANE('',#348);
#19=LINE('',#442,#37);
#20=LINE('',#446,#38);
#21=LINE('',#448,#39);
#22=LINE('',#450,#40);
#23=LINE('',#452,#41);
#24=LINE('',#458,#42);
#25=LINE('',#460,#43);
#26=LINE('',#462,#44);
#27=LINE('',#464,#45);
#28=LINE('',#466,#46);
#29=LINE('',#468,#47);
#30=LINE('',#470,#48);
#31=LINE('',#472,#49);
#32=LINE('',#474,#50);
#33=LINE('',#476,#51);
#34=LINE('',#482,#52);
#35=LINE('',#514,#53);
#36=LINE('',#515,#54);
#37=VECTOR('',#355,1.);
#38=VECTOR('',#358,1.);
#39=VECTOR('',#361,1.);
#40=VECTOR('',#362,1.);
#41=VECTOR('',#363,1.);
#42=VECTOR('',#370,1.);
#43=VECTOR('',#373,1.);
#44=VECTOR('',#374,1.);
#45=VECTOR('',#375,1.);
#46=VECTOR('',#378,1.);
#47=VECTOR('',#379,1.);
#48=VECTOR('',#380,1.);
#49=VECTOR('',#383,1.);
#50=VECTOR('',#384,1.);
#51=VECTOR('',#385,1.);
#52=VECTOR('',#392,1.);
#53=VECTOR('',#431,1.);
#54=VECTOR('',#432,1.);
#55=ORIENTED_EDGE('',*,*,#127,.T.);
#56=ORIENTED_EDGE('',*,*,#128,.F.);
#57=ORIENTED_EDGE('',*,*,#129,.F.);
#58=ORIENTED_EDGE('',*,*,#130,.T.);
#59=ORIENTED_EDGE('',*,*,#131,.F.);
#60=ORIENTED_EDGE('',*,*,#130,.F.);
#61=ORIENTED_EDGE('',*,*,#132,.T.);
#62=ORIENTED_EDGE('',*,*,#133,.T.);
#63=ORIENTED_EDGE('',*,*,#134,.T.);
#64=ORIENTED_EDGE('',*,*,#133,.F.);
#65=ORIENTED_EDGE('',*,*,#135,.F.);
#66=ORIENTED_EDGE('',*,*,#136,.T.);
#67=ORIENTED_EDGE('',*,*,#137,.F.);
#68=ORIENTED_EDGE('',*,*,#136,.F.);
#69=ORIENTED_EDGE('',*,*,#138,.T.);
#70=ORIENTED_EDGE('',*,*,#139,.T.);
#71=ORIENTED_EDGE('',*,*,#140,.F.);
#72=ORIENTED_EDGE('',*,*,#139,.F.);
#73=ORIENTED_EDGE('',*,*,#141,.T.);
#74=ORIENTED_EDGE('',*,*,#142,.T.);
#75=ORIENTED_EDGE('',*,*,#143,.T.);
#76=ORIENTED_EDGE('',*,*,#142,.F.);
#77=ORIENTED_EDGE('',*,*,#144,.F.);
#78=ORIENTED_EDGE('',*,*,#145,.T.);
#79=ORIENTED_EDGE('',*,*,#146,.T.);
#80=ORIENTED_EDGE('',*,*,#145,.F.);
#81=ORIENTED_EDGE('',*,*,#147,.F.);
#82=ORIENTED_EDGE('',*,*,#148,.T.);
#83=ORIENTED_EDGE('',*,*,#149,.F.);
#84=ORIENTED_EDGE('',*,*,#150,.T.);
#85=ORIENTED_EDGE('',*,*,#151,.F.);
#86=ORIENTED_EDGE('',*,*,#152,.T.);
#87=ORIENTED_EDGE('',*,*,#153,.F.);
#88=ORIENTED_EDGE('',*,*,#154,.T.);
#89=ORIENTED_EDGE('',*,*,#155,.F.);
#90=ORIENTED_EDGE('',*,*,#156,.T.);
#91=ORIENTED_EDGE('',*,*,#157,.F.);
#92=ORIENTED_EDGE('',*,*,#158,.T.);
#93=ORIENTED_EDGE('',*,*,#159,.F.);
#94=ORIENTED_EDGE('',*,*,#160,.T.);
#95=ORIENTED_EDGE('',*,*,#161,.T.);
#96=ORIENTED_EDGE('',*,*,#148,.F.);
#97=ORIENTED_EDGE('',*,*,#162,.F.);
#98=ORIENTED_EDGE('',*,*,#128,.T.);
#99=ORIENTED_EDGE('',*,*,#159,.T.);
#100=ORIENTED_EDGE('',*,*,#157,.T.);
#101=ORIENTED_EDGE('',*,*,#155,.T.);
#102=ORIENTED_EDGE('',*,*,#153,.T.);
#103=ORIENTED_EDGE('',*,*,#151,.T.);
#104=ORIENTED_EDGE('',*,*,#149,.T.);
#105=ORIENTED_EDGE('',*,*,#129,.T.);
#106=ORIENTED_EDGE('',*,*,#162,.T.);
#107=ORIENTED_EDGE('',*,*,#147,.T.);
#108=ORIENTED_EDGE('',*,*,#144,.T.);
#109=ORIENTED_EDGE('',*,*,#141,.F.);
#110=ORIENTED_EDGE('',*,*,#138,.F.);
#111=ORIENTED_EDGE('',*,*,#135,.T.);
#112=ORIENTED_EDGE('',*,*,#132,.F.);
#113=ORIENTED_EDGE('',*,*,#160,.F.);
#114=ORIENTED_EDGE('',*,*,#158,.F.);
#115=ORIENTED_EDGE('',*,*,#156,.F.);
#116=ORIENTED_EDGE('',*,*,#154,.F.);
#117=ORIENTED_EDGE('',*,*,#152,.F.);
#118=ORIENTED_EDGE('',*,*,#150,.F.);
#119=ORIENTED_EDGE('',*,*,#127,.F.);
#120=ORIENTED_EDGE('',*,*,#131,.T.);
#121=ORIENTED_EDGE('',*,*,#134,.F.);
#122=ORIENTED_EDGE('',*,*,#137,.T.);
#123=ORIENTED_EDGE('',*,*,#140,.T.);
#124=ORIENTED_EDGE('',*,*,#143,.F.);
#125=ORIENTED_EDGE('',*,*,#146,.F.);
#126=ORIENTED_EDGE('',*,*,#161,.F.);
#127=EDGE_CURVE('',#163,#164,#191,.T.);
#128=EDGE_CURVE('',#165,#164,#19,.T.);
#129=EDGE_CURVE('',#166,#165,#192,.T.);
#130=EDGE_CURVE('',#166,#163,#20,.T.);
#131=EDGE_CURVE('',#163,#167,#21,.T.);
#132=EDGE_CURVE('',#166,#168,#22,.T.);
#133=EDGE_CURVE('',#168,#167,#23,.T.);
#134=EDGE_CURVE('',#169,#167,#193,.T.);
#135=EDGE_CURVE('',#170,#168,#194,.T.);
#136=EDGE_CURVE('',#170,#169,#24,.T.);
#137=EDGE_CURVE('',#169,#171,#25,.T.);
#138=EDGE_CURVE('',#170,#172,#26,.T.);
#139=EDGE_CURVE('',#172,#171,#27,.T.);
#140=EDGE_CURVE('',#171,#173,#28,.T.);
#141=EDGE_CURVE('',#172,#174,#29,.T.);
#142=EDGE_CURVE('',#174,#173,#30,.T.);
#143=EDGE_CURVE('',#175,#173,#31,.T.);
#144=EDGE_CURVE('',#176,#174,#32,.T.);
#145=EDGE_CURVE('',#176,#175,#33,.T.);
#146=EDGE_CURVE('',#177,#175,#195,.T.);
#147=EDGE_CURVE('',#178,#176,#196,.T.);
#148=EDGE_CURVE('',#178,#177,#34,.T.);
#149=EDGE_CURVE('',#179,#179,#197,.T.);
#150=EDGE_CURVE('',#180,#180,#198,.T.);
#151=EDGE_CURVE('',#181,#181,#199,.T.);
#152=EDGE_CURVE('',#182,#182,#200,.T.);
#153=EDGE_CURVE('',#183,#183,#201,.T.);
#154=EDGE_CURVE('',#184,#184,#202,.T.);
#155=EDGE_CURVE('',#185,#185,#203,.T.);
#156=EDGE_CURVE('',#186,#186,#204,.T.);
#157=EDGE_CURVE('',#187,#187,#205,.T.);
#158=EDGE_CURVE('',#188,#188,#206,.T.);
#159=EDGE_CURVE('',#189,#189,#207,.T.);
#160=EDGE_CURVE('',#190,#190,#208,.T.);
#161=EDGE_CURVE('',#164,#177,#35,.T.);
#162=EDGE_CURVE('',#165,#178,#36,.T.);
#163=VERTEX_POINT('',#440);
#164=VERTEX_POINT('',#441);
#165=VERTEX_POINT('',#443);
#166=VERTEX_POINT('',#445);
#167=VERTEX_POINT('',#449);
#168=VERTEX_POINT('',#451);
#169=VERTEX_POINT('',#455);
#170=VERTEX_POINT('',#457);
#171=VERTEX_POINT('',#461);
#172=VERTEX_POINT('',#463);
#173=VERTEX_POINT('',#467);
#174=VERTEX_POINT('',#469);
#175=VERTEX_POINT('',#473);
#176=VERTEX_POINT('',#475);
#177=VERTEX_POINT('',#479);
#178=VERTEX_POINT('',#481);
#179=VERTEX_POINT('',#485);
#180=VERTEX_POINT('',#487);
#181=VERTEX_POINT('',#490);
#182=VERTEX_POINT('',#492);
#183=VERTEX_POINT('',#495);
#184=VERTEX_POINT('',#497);
#185=VERTEX_POINT('',#500);
#186=VERTEX_POINT('',#502);
#187=VERTEX_POINT('',#505);
#188=VERTEX_POINT('',#507);
#189=VERTEX_POINT('',#510);
#190=VERTEX_POINT('',#512);
#191=CIRCLE('',#316,0.13);
#192=CIRCLE('',#317,0.13);
#193=CIRCLE('',#320,0.122000000000036);
#194=CIRCLE('',#321,0.122000000000036);
#195=CIRCLE('',#326,0.12200000000002);
#196=CIRCLE('',#327,0.12200000000002);
#197=CIRCLE('',#329,0.0014);
#198=CIRCLE('',#330,0.0014);
#199=CIRCLE('',#332,0.0014);
#200=CIRCLE('',#333,0.0014);
#201=CIRCLE('',#335,0.0014);
#202=CIRCLE('',#336,0.0014);
#203=CIRCLE('',#338,0.0014);
#204=CIRCLE('',#339,0.0014);
#205=CIRCLE('',#341,0.0023);
#206=CIRCLE('',#342,0.0023);
#207=CIRCLE('',#344,0.0023);
#208=CIRCLE('',#345,0.0023);
#209=EDGE_LOOP('',(#55,#56,#57,#58));
#210=EDGE_LOOP('',(#59,#60,#61,#62));
#211=EDGE_LOOP('',(#63,#64,#65,#66));
#212=EDGE_LOOP('',(#67,#68,#69,#70));
#213=EDGE_LOOP('',(#71,#72,#73,#74));
#214=EDGE_LOOP('',(#75,#76,#77,#78));
#215=EDGE_LOOP('',(#79,#80,#81,#82));
#216=EDGE_LOOP('',(#83));
#217=EDGE_LOOP('',(#84));
#218=EDGE_LOOP('',(#85));
#219=EDGE_LOOP('',(#86));
#220=EDGE_LOOP('',(#87));
#221=EDGE_LOOP('',(#88));
#222=EDGE_LOOP('',(#89));
#223=EDGE_LOOP('',(#90));
#224=EDGE_LOOP('',(#91));
#225=EDGE_LOOP('',(#92));
#226=EDGE_LOOP('',(#93));
#227=EDGE_LOOP('',(#94));
#228=EDGE_LOOP('',(#95,#96,#97,#98));
#229=EDGE_LOOP('',(#99));
#230=EDGE_LOOP('',(#100));
#231=EDGE_LOOP('',(#101));
#232=EDGE_LOOP('',(#102));
#233=EDGE_LOOP('',(#103));
#234=EDGE_LOOP('',(#104));
#235=EDGE_LOOP('',(#105,#106,#107,#108,#109,#110,#111,#112));
#236=EDGE_LOOP('',(#113));
#237=EDGE_LOOP('',(#114));
#238=EDGE_LOOP('',(#115));
#239=EDGE_LOOP('',(#116));
#240=EDGE_LOOP('',(#117));
#241=EDGE_LOOP('',(#118));
#242=EDGE_LOOP('',(#119,#120,#121,#122,#123,#124,#125,#126));
#243=FACE_BOUND('',#209,.T.);
#244=FACE_BOUND('',#210,.T.);
#245=FACE_BOUND('',#211,.T.);
#246=FACE_BOUND('',#212,.T.);
#247=FACE_BOUND('',#213,.T.);
#248=FACE_BOUND('',#214,.T.);
#249=FACE_BOUND('',#215,.T.);
#250=FACE_BOUND('',#216,.T.);
#251=FACE_BOUND('',#217,.T.);
#252=FACE_BOUND('',#218,.T.);
#253=FACE_BOUND('',#219,.T.);
#254=FACE_BOUND('',#220,.T.);
#255=FACE_BOUND('',#221,.T.);
#256=FACE_BOUND('',#222,.T.);
#257=FACE_BOUND('',#223,.T.);
#258=FACE_BOUND('',#224,.T.);
#259=FACE_BOUND('',#225,.T.);
#260=FACE_BOUND('',#226,.T.);
#261=FACE_BOUND('',#227,.T.);
#262=FACE_BOUND('',#228,.T.);
#263=FACE_BOUND('',#229,.T.);
#264=FACE_BOUND('',#230,.T.);
#265=FACE_BOUND('',#231,.T.);
#266=FACE_BOUND('',#232,.T.);
#267=FACE_BOUND('',#233,.T.);
#268=FACE_BOUND('',#234,.T.);
#269=FACE_BOUND('',#235,.T.);
#270=FACE_BOUND('',#236,.T.);
#271=FACE_BOUND('',#237,.T.);
#272=FACE_BOUND('',#238,.T.);
#273=FACE_BOUND('',#239,.T.);
#274=FACE_BOUND('',#240,.T.);
#275=FACE_BOUND('',#241,.T.);
#276=FACE_BOUND('',#242,.T.);
#277=CYLINDRICAL_SURFACE('',#315,0.13);
#278=CYLINDRICAL_SURFACE('',#319,0.122000000000036);
#279=CYLINDRICAL_SURFACE('',#325,0.12200000000002);
#280=CYLINDRICAL_SURFACE('',#328,0.0014);
#281=CYLINDRICAL_SURFACE('',#331,0.0014);
#282=CYLINDRICAL_SURFACE('',#334,0.0014);
#283=CYLINDRICAL_SURFACE('',#337,0.0014);
#284=CYLINDRICAL_SURFACE('',#340,0.0023);
#285=CYLINDRICAL_SURFACE('',#343,0.0023);
#286=ADVANCED_FACE('',(#243),#277,.T.);
#287=ADVANCED_FACE('',(#244),#12,.T.);
#288=ADVANCED_FACE('',(#245),#278,.T.);
#289=ADVANCED_FACE('',(#246),#13,.T.);
#290=ADVANCED_FACE('',(#247),#14,.T.);
#291=ADVANCED_FACE('',(#248),#15,.F.);
#292=ADVANCED_FACE('',(#249),#279,.T.);
#293=ADVANCED_FACE('',(#250,#251),#280,.F.);
#294=ADVANCED_FACE('',(#252,#253),#281,.F.);
#295=ADVANCED_FACE('',(#254,#255),#282,.F.);
#296=ADVANCED_FACE('',(#256,#257),#283,.F.);
#297=ADVANCED_FACE('',(#258,#259),#284,.F.);
#298=ADVANCED_FACE('',(#260,#261),#285,.F.);
#299=ADVANCED_FACE('',(#262),#16,.F.);
#300=ADVANCED_FACE('',(#263,#264,#265,#266,#267,#268,#269),#17,.F.);
#301=ADVANCED_FACE('',(#270,#271,#272,#273,#274,#275,#276),#18,.T.);
#302=CLOSED_SHELL('',(#286,#287,#288,#289,#290,#291,#292,#293,#294,#295,
#296,#297,#298,#299,#300,#301));
#303=STYLED_ITEM('',(#304),#311);
#304=PRESENTATION_STYLE_ASSIGNMENT((#305));
#305=SURFACE_STYLE_USAGE(.BOTH.,#306);
#306=SURFACE_SIDE_STYLE('',(#307));
#307=SURFACE_STYLE_FILL_AREA(#308);
#308=FILL_AREA_STYLE('',(#309));
#309=FILL_AREA_STYLE_COLOUR('',#310);
#310=COLOUR_RGB('',0.117647058823529,0.462745098039216,0.235294117647059);
#311=MANIFOLD_SOLID_BREP('pcb',#302);
#312=SHAPE_DEFINITION_REPRESENTATION(#524,#313);
#313=SHAPE_REPRESENTATION('pcb',(#314),#519);
#314=AXIS2_PLACEMENT_3D('',#437,#349,#350);
#315=AXIS2_PLACEMENT_3D('',#438,#351,#352);
#316=AXIS2_PLACEMENT_3D('',#439,#353,#354);
#317=AXIS2_PLACEMENT_3D('',#444,#356,#357);
#318=AXIS2_PLACEMENT_3D('',#447,#359,#360);
#319=AXIS2_PLACEMENT_3D('',#453,#364,#365);
#320=AXIS2_PLACEMENT_3D('',#454,#366,#367);
#321=AXIS2_PLACEMENT_3D('',#456,#368,#369);
#322=AXIS2_PLACEMENT_3D('',#459,#371,#372);
#323=AXIS2_PLACEMENT_3D('',#465,#376,#377);
#324=AXIS2_PLACEMENT_3D('',#471,#381,#382);
#325=AXIS2_PLACEMENT_3D('',#477,#386,#387);
#326=AXIS2_PLACEMENT_3D('',#478,#388,#389);
#327=AXIS2_PLACEMENT_3D('',#480,#390,#391);
#328=AXIS2_PLACEMENT_3D('',#483,#393,#394);
#329=AXIS2_PLACEMENT_3D('',#484,#395,#396);
#330=AXIS2_PLACEMENT_3D('',#486,#397,#398);
#331=AXIS2_PLACEMENT_3D('',#488,#399,#400);
#332=AXIS2_PLACEMENT_3D('',#489,#401,#402);
#333=AXIS2_PLACEMENT_3D('',#491,#403,#404);
#334=AXIS2_PLACEMENT_3D('',#493,#405,#406);
#335=AXIS2_PLACEMENT_3D('',#494,#407,#408);
#336=AXIS2_PLACEMENT_3D('',#496,#409,#410);
#337=AXIS2_PLACEMENT_3D('',#498,#411,#412);
#338=AXIS2_PLACEMENT_3D('',#499,#413,#414);
#339=AXIS2_PLACEMENT_3D('',#501,#415,#416);
#340=AXIS2_PLACEMENT_3D('',#503,#417,#418);
#341=AXIS2_PLACEMENT_3D('',#504,#419,#420);
#342=AXIS2_PLACEMENT_3D('',#506,#421,#422);
#343=AXIS2_PLACEMENT_3D('',#508,#423,#424);
#344=AXIS2_PLACEMENT_3D('',#509,#425,#426);
#345=AXIS2_PLACEMENT_3D('',#511,#427,#428);
#346=AXIS2_PLACEMENT_3D('',#513,#429,#430);
#347=AXIS2_PLACEMENT_3D('',#516,#433,#434);
#348=AXIS2_PLACEMENT_3D('',#517,#435,#436);
#349=DIRECTION('',(0.,0.,1.));
#350=DIRECTION('',(1.,0.,0.));
#351=DIRECTION('',(0.,0.,1.));
#352=DIRECTION('',(1.,0.,0.));
#353=DIRECTION('',(0.,0.,-1.));
#354=DIRECTION('',(1.,0.,0.));
#355=DIRECTION('',(0.,0.,1.));
#356=DIRECTION('',(0.,0.,-1.));
#357=DIRECTION('',(1.,0.,0.));
#358=DIRECTION('',(0.,0.,1.));
#359=DIRECTION('',(-0.978147600733806,-0.207911690817759,0.));
#360=DIRECTION('',(0.207911690817759,-0.978147600733806,0.));
#361=DIRECTION('',(0.207911690817759,-0.978147600733806,0.));
#362=DIRECTION('',(0.207911690817759,-0.978147600733806,0.));
#363=DIRECTION('',(0.,0.,1.));
#364=DIRECTION('',(0.,0.,1.));
#365=DIRECTION('',(1.,0.,0.));
#366=DIRECTION('',(0.,0.,-1.));
#367=DIRECTION('',(1.,0.,0.));
#368=DIRECTION('',(0.,0.,-1.));
#369=DIRECTION('',(1.,0.,0.));
#370=DIRECTION('',(0.,0.,1.));
#371=DIRECTION('',(-0.965925826289068,-0.258819045102522,0.));
#372=DIRECTION('',(0.258819045102522,-0.965925826289068,0.));
#373=DIRECTION('',(0.258819045102522,-0.965925826289068,0.));
#374=DIRECTION('',(0.258819045102522,-0.965925826289068,0.));
#375=DIRECTION('',(0.,0.,1.));
#376=DIRECTION('',(2.46631472359159E-16,-1.,0.));
#377=DIRECTION('',(1.,2.46631472359159E-16,0.));
#378=DIRECTION('',(1.,2.46631472359159E-16,0.));
#379=DIRECTION('',(1.,2.46631472359159E-16,0.));
#380=DIRECTION('',(0.,0.,1.));
#381=DIRECTION('',(-0.965925826289068,0.258819045102521,0.));
#382=DIRECTION('',(-0.258819045102521,-0.965925826289068,0.));
#383=DIRECTION('',(-0.258819045102521,-0.965925826289068,0.));
#384=DIRECTION('',(-0.258819045102521,-0.965925826289068,0.));
#385=DIRECTION('',(0.,0.,1.));
#386=DIRECTION('',(0.,0.,1.));
#387=DIRECTION('',(1.,0.,0.));
#388=DIRECTION('',(0.,0.,-1.));
#389=DIRECTION('',(1.,0.,0.));
#390=DIRECTION('',(0.,0.,-1.));
#391=DIRECTION('',(1.,0.,0.));
#392=DIRECTION('',(0.,0.,1.));
#393=DIRECTION('',(0.,0.,1.));
#394=DIRECTION('',(1.,0.,0.));
#395=DIRECTION('',(0.,0.,1.));
#396=DIRECTION('',(1.,0.,0.));
#397=DIRECTION('',(0.,0.,1.));
#398=DIRECTION('',(1.,0.,0.));
#399=DIRECTION('',(0.,0.,1.));
#400=DIRECTION('',(1.,0.,0.));
#401=DIRECTION('',(0.,0.,1.));
#402=DIRECTION('',(1.,0.,0.));
#403=DIRECTION('',(0.,0.,1.));
#404=DIRECTION('',(1.,0.,0.));
#405=DIRECTION('',(0.,0.,1.));
#406=DIRECTION('',(1.,0.,0.));
#407=DIRECTION('',(0.,0.,1.));
#408=DIRECTION('',(1.,0.,0.));
#409=DIRECTION('',(0.,0.,1.));
#410=DIRECTION('',(1.,0.,0.));
#411=DIRECTION('',(0.,0.,1.));
#412=DIRECTION('',(1.,0.,0.));
#413=DIRECTION('',(0.,0.,1.));
#414=DIRECTION('',(1.,0.,0.));
#415=DIRECTION('',(0.,0.,1.));
#416=DIRECTION('',(1.,0.,0.));
#417=DIRECTION('',(0.,0.,1.));
#418=DIRECTION('',(1.,0.,0.));
#419=DIRECTION('',(0.,0.,1.));
#420=DIRECTION('',(1.,0.,0.));
#421=DIRECTION('',(0.,0.,1.));
#422=DIRECTION('',(1.,0.,0.));
#423=DIRECTION('',(0.,0.,1.));
#424=DIRECTION('',(1.,0.,0.));
#425=DIRECTION('',(0.,0.,1.));
#426=DIRECTION('',(1.,0.,0.));
#427=DIRECTION('',(0.,0.,1.));
#428=DIRECTION('',(1.,0.,0.));
#429=DIRECTION('',(-0.978147600733806,0.207911690817759,0.));
#430=DIRECTION('',(-0.207911690817759,-0.978147600733806,0.));
#431=DIRECTION('',(-0.207911690817759,-0.978147600733806,0.));
#432=DIRECTION('',(-0.207911690817759,-0.978147600733806,0.));
#433=DIRECTION('',(0.,0.,1.));
#434=DIRECTION('',(1.,0.,0.));
#435=DIRECTION('',(0.,0.,1.));
#436=DIRECTION('',(1.,0.,0.));
#437=CARTESIAN_POINT('',(0.,0.,0.));
#438=CARTESIAN_POINT('',(6.93889390390723E-18,1.52655665885959E-16,0.0024));
#439=CARTESIAN_POINT('',(6.93889390390723E-18,1.52655665885959E-16,0.004));
#440=CARTESIAN_POINT('',(-0.0270285198063087,0.127159188095395,0.004));
#441=CARTESIAN_POINT('',(0.0270285198063087,0.127159188095395,0.004));
#442=CARTESIAN_POINT('',(0.0270285198063087,0.127159188095395,0.0024));
#443=CARTESIAN_POINT('',(0.0270285198063087,0.127159188095395,0.0024));
#444=CARTESIAN_POINT('',(6.93889390390723E-18,1.52655665885959E-16,0.0024));
#445=CARTESIAN_POINT('',(-0.0270285198063087,0.127159188095395,0.0024));
#446=CARTESIAN_POINT('',(-0.0270285198063087,0.127159188095395,0.0024));
#447=CARTESIAN_POINT('',(-0.0261968730430376,0.123246597692459,0.0024));
#448=CARTESIAN_POINT('',(-0.0261968730430376,0.123246597692459,0.004));
#449=CARTESIAN_POINT('',(-0.0253652262797667,0.119334007289524,0.004));
#450=CARTESIAN_POINT('',(-0.0261968730430376,0.123246597692459,0.0024));
#451=CARTESIAN_POINT('',(-0.0253652262797667,0.119334007289524,0.0024));
#452=CARTESIAN_POINT('',(-0.0253652262797667,0.119334007289524,0.0024));
#453=CARTESIAN_POINT('',(8.68749516769185E-15,-3.51663143050019E-14,0.0024));
#454=CARTESIAN_POINT('',(8.68749516769185E-15,-3.51663143050019E-14,0.004));
#455=CARTESIAN_POINT('',(-0.0315759235025076,0.117842950807266,0.004));
#456=CARTESIAN_POINT('',(8.68749516769185E-15,-3.51663143050019E-14,0.0024));
#457=CARTESIAN_POINT('',(-0.0315759235025076,0.117842950807266,0.0024));
#458=CARTESIAN_POINT('',(-0.0315759235025076,0.117842950807266,0.0024));
#459=CARTESIAN_POINT('',(-0.0298552943538877,0.111421475403633,0.0024));
#460=CARTESIAN_POINT('',(-0.0298552943538877,0.111421475403633,0.004));
#461=CARTESIAN_POINT('',(-0.0281346652052679,0.105,0.004));
#462=CARTESIAN_POINT('',(-0.0298552943538877,0.111421475403633,0.0024));
#463=CARTESIAN_POINT('',(-0.0281346652052679,0.105,0.0024));
#464=CARTESIAN_POINT('',(-0.0281346652052679,0.105,0.0024));
#465=CARTESIAN_POINT('',(-1.04083408558608E-17,0.105,0.0024));
#466=CARTESIAN_POINT('',(-1.04083408558608E-17,0.105,0.004));
#467=CARTESIAN_POINT('',(0.0281346652052679,0.105,0.004));
#468=CARTESIAN_POINT('',(-1.04083408558608E-17,0.105,0.0024));
#469=CARTESIAN_POINT('',(0.0281346652052679,0.105,0.0024));
#470=CARTESIAN_POINT('',(0.0281346652052679,0.105,0.0024));
#471=CARTESIAN_POINT('',(0.0298552943538877,0.111421475403633,0.0024));
#472=CARTESIAN_POINT('',(0.0298552943538877,0.111421475403633,0.004));
#473=CARTESIAN_POINT('',(0.0315759235025076,0.117842950807266,0.004));
#474=CARTESIAN_POINT('',(0.0298552943538877,0.111421475403633,0.0024));
#475=CARTESIAN_POINT('',(0.0315759235025076,0.117842950807266,0.0024));
#476=CARTESIAN_POINT('',(0.0315759235025076,0.117842950807266,0.0024));
#477=CARTESIAN_POINT('',(-4.54844495401119E-15,-1.90888971296488E-14,0.0024));
#478=CARTESIAN_POINT('',(-4.54844495401119E-15,-1.90888971296488E-14,0.004));
#479=CARTESIAN_POINT('',(0.0253652262797667,0.119334007289524,0.004));
#480=CARTESIAN_POINT('',(-4.54844495401119E-15,-1.90888971296488E-14,0.0024));
#481=CARTESIAN_POINT('',(0.0253652262797667,0.119334007289524,0.0024));
#482=CARTESIAN_POINT('',(0.0253652262797667,0.119334007289524,0.0024));
#483=CARTESIAN_POINT('',(0.0222269667413671,0.126055392385563,0.0024));
#484=CARTESIAN_POINT('',(0.0222269667413671,0.126055392385563,0.0024));
#485=CARTESIAN_POINT('',(0.0236269667413671,0.126055392385563,0.0024));
#486=CARTESIAN_POINT('',(0.0222269667413671,0.126055392385563,0.004));
#487=CARTESIAN_POINT('',(0.0236269667413671,0.126055392385563,0.004));
#488=CARTESIAN_POINT('',(0.0189276513656954,0.107344045078331,0.0024));
#489=CARTESIAN_POINT('',(0.0189276513656954,0.107344045078331,0.0024));
#490=CARTESIAN_POINT('',(0.0203276513656954,0.107344045078331,0.0024));
#491=CARTESIAN_POINT('',(0.0189276513656954,0.107344045078331,0.004));
#492=CARTESIAN_POINT('',(0.0203276513656954,0.107344045078331,0.004));
#493=CARTESIAN_POINT('',(-0.0222269667413671,0.126055392385563,0.0024));
#494=CARTESIAN_POINT('',(-0.0222269667413671,0.126055392385563,0.0024));
#495=CARTESIAN_POINT('',(-0.0208269667413671,0.126055392385563,0.0024));
#496=CARTESIAN_POINT('',(-0.0222269667413671,0.126055392385563,0.004));
#497=CARTESIAN_POINT('',(-0.0208269667413671,0.126055392385563,0.004));
#498=CARTESIAN_POINT('',(-0.0189276513656954,0.107344045078331,0.0024));
#499=CARTESIAN_POINT('',(-0.0189276513656954,0.107344045078331,0.0024));
#500=CARTESIAN_POINT('',(-0.0175276513656954,0.107344045078331,0.0024));
#501=CARTESIAN_POINT('',(-0.0189276513656954,0.107344045078331,0.004));
#502=CARTESIAN_POINT('',(-0.0175276513656954,0.107344045078331,0.004));
#503=CARTESIAN_POINT('',(-0.0205773090535313,0.116699718731947,0.0024));
#504=CARTESIAN_POINT('',(-0.0205773090535313,0.116699718731947,0.0024));
#505=CARTESIAN_POINT('',(-0.0182773090535313,0.116699718731947,0.0024));
#506=CARTESIAN_POINT('',(-0.0205773090535313,0.116699718731947,0.004));
#507=CARTESIAN_POINT('',(-0.0182773090535313,0.116699718731947,0.004));
#508=CARTESIAN_POINT('',(0.0205773090535313,0.116699718731947,0.0024));
#509=CARTESIAN_POINT('',(0.0205773090535313,0.116699718731947,0.0024));
#510=CARTESIAN_POINT('',(0.0228773090535313,0.116699718731947,0.0024));
#511=CARTESIAN_POINT('',(0.0205773090535313,0.116699718731947,0.004));
#512=CARTESIAN_POINT('',(0.0228773090535313,0.116699718731947,0.004));
#513=CARTESIAN_POINT('',(0.0261968730430376,0.123246597692459,0.0024));
#514=CARTESIAN_POINT('',(0.0261968730430376,0.123246597692459,0.004));
#515=CARTESIAN_POINT('',(0.0261968730430376,0.123246597692459,0.0024));
#516=CARTESIAN_POINT('',(4.16333634234433E-17,0.11041302175413,0.0024));
#517=CARTESIAN_POINT('',(4.16333634234433E-17,0.11041302175413,0.004));
#518=MECHANICAL_DESIGN_GEOMETRIC_PRESENTATION_REPRESENTATION('',(#303),
#519);
#519=(
GEOMETRIC_REPRESENTATION_CONTEXT(3)
GLOBAL_UNCERTAINTY_ASSIGNED_CONTEXT((#520))
GLOBAL_UNIT_ASSIGNED_CONTEXT((#523,#522,#521))
REPRESENTATION_CONTEXT('pcb','TOP_LEVEL_ASSEMBLY_PART')
);
#520=UNCERTAINTY_MEASURE_WITH_UNIT(LENGTH_MEASURE(5.E-6),#523,
'DISTANCE_ACCURACY_VALUE','Maximum Tolerance applied to model');
#521=(
NAMED_UNIT(*)
SI_UNIT($,.STERADIAN.)
SOLID_ANGLE_UNIT()
);
#522=(
NAMED_UNIT(*)
PLANE_ANGLE_UNIT()
SI_UNIT($,.RADIAN.)
);
#523=(
LENGTH_UNIT()
NAMED_UNIT(*)
SI_UNIT($,.METRE.)
);
#524=PRODUCT_DEFINITION_SHAPE('','',#525);
#525=PRODUCT_DEFINITION('','',#527,#526);
#526=PRODUCT_DEFINITION_CONTEXT('',#533,'design');
#527=PRODUCT_DEFINITION_FORMATION_WITH_SPECIFIED_SOURCE('','',#529,
 .NOT_KNOWN.);
#528=PRODUCT_RELATED_PRODUCT_CATEGORY('','',(#529));
#529=PRODUCT('pcb','pcb','pcb',(#531));
#530=PRODUCT_CATEGORY('','');
#531=PRODUCT_CONTEXT('',#533,'mechanical');
#532=APPLICATION_PROTOCOL_DEFINITION('international standard',
'ap242_managed_model_based_3d_engineering',2011,#533);
#533=APPLICATION_CONTEXT('managed model based 3d engineering');
ENDSEC;
END-ISO-10303-21;
